  0
SECTION
  2
HEADER
  9
$ACADVER
  1
AC1024
  9
$ACADMAINTVER
 70
   109
  9
$DWGCODEPAGE
  3
ANSI_1252
  9
$LASTSAVEDBY
  1
MauroR
  9
$INSBASE
 10
0.0
 20
0.0
 30
0.0
  9
$EXTMIN
 10
-3.55315798208785
 20
-3.810787329013254
 30
0.0
  9
$EXTMAX
 10
30.33255630362651
 20
33.896
 30
0.0
  9
$LIMMIN
 10
0.0
 20
0.0
  9
$LIMMAX
 10
12.0
 20
9.0
  9
$ORTHOMODE
 70
     0
  9
$REGENMODE
 70
     1
  9
$FILLMODE
 70
     1
  9
$QTEXTMODE
 70
     0
  9
$MIRRTEXT
 70
     0
  9
$LTSCALE
 40
1.0
  9
$ATTMODE
 70
     1
  9
$TEXTSIZE
 40
0.0
  9
$TRACEWID
 40
0.05
  9
$TEXTSTYLE
  7
Standard
  9
$CLAYER
  8
0
  9
$CELTYPE
  6
ByLayer
  9
$CECOLOR
 62
   256
  9
$CELTSCALE
 40
1.0
  9
$DISPSILH
 70
     0
  9
$DIMSCALE
 40
1.0
  9
$DIMASZ
 40
0.18
  9
$DIMEXO
 40
0.0625
  9
$DIMDLI
 40
0.38
  9
$DIMRND
 40
0.0
  9
$DIMDLE
 40
0.0
  9
$DIMEXE
 40
0.18
  9
$DIMTP
 40
0.0
  9
$DIMTM
 40
0.0
  9
$DIMTXT
 40
0.18
  9
$DIMCEN
 40
0.09
  9
$DIMTSZ
 40
0.0
  9
$DIMTOL
 70
     0
  9
$DIMLIM
 70
     0
  9
$DIMTIH
 70
     1
  9
$DIMTOH
 70
     1
  9
$DIMSE1
 70
     0
  9
$DIMSE2
 70
     0
  9
$DIMTAD
 70
     0
  9
$DIMZIN
 70
     0
  9
$DIMBLK
  1

  9
$DIMASO
 70
     1
  9
$DIMSHO
 70
     1
  9
$DIMPOST
  1

  9
$DIMAPOST
  1

  9
$DIMALT
 70
     0
  9
$DIMALTD
 70
     2
  9
$DIMALTF
 40
25.4
  9
$DIMLFAC
 40
1.0
  9
$DIMTOFL
 70
     0
  9
$DIMTVP
 40
0.0
  9
$DIMTIX
 70
     0
  9
$DIMSOXD
 70
     0
  9
$DIMSAH
 70
     0
  9
$DIMBLK1
  1

  9
$DIMBLK2
  1

  9
$DIMSTYLE
  2
Standard
  9
$DIMCLRD
 70
     0
  9
$DIMCLRE
 70
     0
  9
$DIMCLRT
 70
     0
  9
$DIMTFAC
 40
1.0
  9
$DIMGAP
 40
0.09
  9
$DIMJUST
 70
     0
  9
$DIMSD1
 70
     0
  9
$DIMSD2
 70
     0
  9
$DIMTOLJ
 70
     1
  9
$DIMTZIN
 70
     0
  9
$DIMALTZ
 70
     0
  9
$DIMALTTZ
 70
     0
  9
$DIMUPT
 70
     0
  9
$DIMDEC
 70
     4
  9
$DIMTDEC
 70
     4
  9
$DIMALTU
 70
     2
  9
$DIMALTTD
 70
     2
  9
$DIMTXSTY
  7
Standard
  9
$DIMAUNIT
 70
     0
  9
$DIMADEC
 70
     0
  9
$DIMALTRND
 40
0.0
  9
$DIMAZIN
 70
     0
  9
$DIMDSEP
 70
    46
  9
$DIMATFIT
 70
     3
  9
$DIMFRAC
 70
     0
  9
$DIMLDRBLK
  1

  9
$DIMLUNIT
 70
     2
  9
$DIMLWD
 70
    -2
  9
$DIMLWE
 70
    -2
  9
$DIMTMOVE
 70
     0
  9
$DIMFXL
 40
1.0
  9
$DIMFXLON
 70
     0
  9
$DIMJOGANG
 40
0.7853981633974483
  9
$DIMTFILL
 70
     0
  9
$DIMTFILLCLR
 70
     0
  9
$DIMARCSYM
 70
     0
  9
$DIMLTYPE
  6

  9
$DIMLTEX1
  6

  9
$DIMLTEX2
  6

  9
$DIMTXTDIRECTION
 70
     0
  9
$LUNITS
 70
     2
  9
$LUPREC
 70
     4
  9
$SKETCHINC
 40
0.1
  9
$FILLETRAD
 40
0.0
  9
$AUNITS
 70
     0
  9
$AUPREC
 70
     0
  9
$MENU
  1
.
  9
$ELEVATION
 40
0.0
  9
$PELEVATION
 40
0.0
  9
$THICKNESS
 40
0.0
  9
$LIMCHECK
 70
     0
  9
$CHAMFERA
 40
0.0
  9
$CHAMFERB
 40
0.0
  9
$CHAMFERC
 40
0.0
  9
$CHAMFERD
 40
0.0
  9
$SKPOLY
 70
     0
  9
$TDCREATE
 40
2457015.439765533
  9
$TDUCREATE
 40
2457015.398098866
  9
$TDUPDATE
 40
2457015.483096621
  9
$TDUUPDATE
 40
2457015.441429954
  9
$TDINDWG
 40
0.0045508796
  9
$TDUSRTIMER
 40
0.0045508796
  9
$USRTIMER
 70
     1
  9
$ANGBASE
 50
0.0
  9
$ANGDIR
 70
     0
  9
$PDMODE
 70
     0
  9
$PDSIZE
 40
0.0
  9
$PLINEWID
 40
0.0
  9
$SPLFRAME
 70
     0
  9
$SPLINETYPE
 70
     6
  9
$SPLINESEGS
 70
     8
  9
$HANDSEED
  5
308
  9
$SURFTAB1
 70
     6
  9
$SURFTAB2
 70
     6
  9
$SURFTYPE
 70
     6
  9
$SURFU
 70
     6
  9
$SURFV
 70
     6
  9
$UCSBASE
  2

  9
$UCSNAME
  2

  9
$UCSORG
 10
0.0
 20
0.0
 30
0.0
  9
$UCSXDIR
 10
1.0
 20
0.0
 30
0.0
  9
$UCSYDIR
 10
0.0
 20
1.0
 30
0.0
  9
$UCSORTHOREF
  2

  9
$UCSORTHOVIEW
 70
     0
  9
$UCSORGTOP
 10
0.0
 20
0.0
 30
0.0
  9
$UCSORGBOTTOM
 10
0.0
 20
0.0
 30
0.0
  9
$UCSORGLEFT
 10
0.0
 20
0.0
 30
0.0
  9
$UCSORGRIGHT
 10
0.0
 20
0.0
 30
0.0
  9
$UCSORGFRONT
 10
0.0
 20
0.0
 30
0.0
  9
$UCSORGBACK
 10
0.0
 20
0.0
 30
0.0
  9
$PUCSBASE
  2

  9
$PUCSNAME
  2

  9
$PUCSORG
 10
0.0
 20
0.0
 30
0.0
  9
$PUCSXDIR
 10
1.0
 20
0.0
 30
0.0
  9
$PUCSYDIR
 10
0.0
 20
1.0
 30
0.0
  9
$PUCSORTHOREF
  2

  9
$PUCSORTHOVIEW
 70
     0
  9
$PUCSORGTOP
 10
0.0
 20
0.0
 30
0.0
  9
$PUCSORGBOTTOM
 10
0.0
 20
0.0
 30
0.0
  9
$PUCSORGLEFT
 10
0.0
 20
0.0
 30
0.0
  9
$PUCSORGRIGHT
 10
0.0
 20
0.0
 30
0.0
  9
$PUCSORGFRONT
 10
0.0
 20
0.0
 30
0.0
  9
$PUCSORGBACK
 10
0.0
 20
0.0
 30
0.0
  9
$USERI1
 70
     0
  9
$USERI2
 70
     0
  9
$USERI3
 70
     0
  9
$USERI4
 70
     0
  9
$USERI5
 70
     0
  9
$USERR1
 40
0.0
  9
$USERR2
 40
0.0
  9
$USERR3
 40
0.0
  9
$USERR4
 40
0.0
  9
$USERR5
 40
0.0
  9
$WORLDVIEW
 70
     1
  9
$SHADEDGE
 70
     3
  9
$SHADEDIF
 70
    70
  9
$TILEMODE
 70
     1
  9
$MAXACTVP
 70
    64
  9
$PINSBASE
 10
0.0
 20
0.0
 30
0.0
  9
$PLIMCHECK
 70
     0
  9
$PEXTMIN
 10
1.000000000000000E+20
 20
1.000000000000000E+20
 30
1.000000000000000E+20
  9
$PEXTMAX
 10
-1.000000000000000E+20
 20
-1.000000000000000E+20
 30
-1.000000000000000E+20
  9
$PLIMMIN
 10
0.0
 20
0.0
  9
$PLIMMAX
 10
12.0
 20
9.0
  9
$UNITMODE
 70
     0
  9
$VISRETAIN
 70
     1
  9
$PLINEGEN
 70
     0
  9
$PSLTSCALE
 70
     1
  9
$TREEDEPTH
 70
  3020
  9
$CMLSTYLE
  2
Standard
  9
$CMLJUST
 70
     0
  9
$CMLSCALE
 40
20.0
  9
$PROXYGRAPHICS
 70
     1
  9
$MEASUREMENT
 70
     0
  9
$CELWEIGHT
370
    -1
  9
$ENDCAPS
280
     0
  9
$JOINSTYLE
280
     0
  9
$LWDISPLAY
290
     0
  9
$INSUNITS
 70
     0
  9
$HYPERLINKBASE
  1

  9
$STYLESHEET
  1

  9
$XEDIT
290
     1
  9
$CEPSNTYPE
380
     0
  9
$PSTYLEMODE
290
     1
  9
$FINGERPRINTGUID
  2
{3FED17F6-7B06-4F3B-AC42-20479896B022}
  9
$VERSIONGUID
  2
{840BC678-5283-4379-BCED-43A41028F9A2}
  9
$EXTNAMES
290
     1
  9
$PSVPSCALE
 40
0.0
  9
$OLESTARTUP
290
     0
  9
$SORTENTS
280
   127
  9
$INDEXCTL
280
     0
  9
$HIDETEXT
280
     0
  9
$XCLIPFRAME
280
     0
  9
$HALOGAP
280
     0
  9
$OBSCOLOR
 70
   257
  9
$OBSLTYPE
280
     0
  9
$INTERSECTIONDISPLAY
280
     0
  9
$INTERSECTIONCOLOR
 70
   257
  9
$DIMASSOC
280
     1
  9
$PROJECTNAME
  1

  9
$CAMERADISPLAY
290
     0
  9
$LENSLENGTH
 40
50.0
  9
$CAMERAHEIGHT
 40
0.0
  9
$STEPSPERSEC
 40
2.0
  9
$STEPSIZE
 40
6.0
  9
$3DDWFPREC
 40
2.0
  9
$PSOLWIDTH
 40
0.25
  9
$PSOLHEIGHT
 40
4.0
  9
$LOFTANG1
 40
1.570796326794896
  9
$LOFTANG2
 40
1.570796326794896
  9
$LOFTMAG1
 40
0.0
  9
$LOFTMAG2
 40
0.0
  9
$LOFTPARAM
 70
     7
  9
$LOFTNORMALS
280
     1
  9
$LATITUDE
 40
0.0
  9
$LONGITUDE
 40
0.0
  9
$NORTHDIRECTION
 40
0.0
  9
$TIMEZONE
 70
 -8000
  9
$LIGHTGLYPHDISPLAY
280
     1
  9
$TILEMODELIGHTSYNCH
280
     1
  9
$CMATERIAL
347
2E9
  9
$SOLIDHIST
280
     1
  9
$SHOWHIST
280
     1
  9
$DWFFRAME
280
     2
  9
$DGNFRAME
280
     0
  9
$REALWORLDSCALE
290
     0
  9
$INTERFERECOLOR
 62
     1
  9
$CSHADOW
280
     0
  9
$SHADOWPLANELOCATION
 40
0.0
  0
ENDSEC
  0
SECTION
  2
CLASSES
  0
CLASS
  1
RASTERVARIABLES
  2
AcDbRasterVariables
  3
ImgSvr
 90
        0
 91
        0
280
     0
281
     0
  0
CLASS
  1
SCALE
  2
AcDbScale
  3
ObjectDBX Classes
 90
     1153
 91
       33
280
     0
281
     0
  0
CLASS
  1
ACDBDICTIONARYWDFLT
  2
AcDbDictionaryWithDefault
  3
ObjectDBX Classes
 90
        0
 91
        1
280
     0
281
     0
  0
CLASS
  1
MATERIAL
  2
AcDbMaterial
  3
ObjectDBX Classes
 90
        0
 91
        3
280
     0
281
     0
  0
CLASS
  1
TABLESTYLE
  2
AcDbTableStyle
  3
ObjectDBX Classes
 90
     4095
 91
        1
280
     0
281
     0
  0
CLASS
  1
MLEADERSTYLE
  2
AcDbMLeaderStyle
  3
ACDB_MLEADERSTYLE_CLASS
 90
     4095
 91
        1
280
     0
281
     0
  0
CLASS
  1
DICTIONARYVAR
  2
AcDbDictionaryVar
  3
ObjectDBX Classes
 90
        0
 91
        2
280
     0
281
     0
  0
CLASS
  1
CELLSTYLEMAP
  2
AcDbCellStyleMap
  3
NULL
 90
     1152
 91
        1
280
     0
281
     0
  0
ENDSEC
  0
SECTION
  2
TABLES
  0
TABLE
  2
VPORT
  5
1
330
0
100
AcDbSymbolTable
 70
     1
  0
VPORT
  5
E
330
1
100
AcDbSymbolTableRecord
100
AcDbViewportTableRecord
  2
*Active
 70
     0
 10
0.0
 20
0.0
 11
1.0
 21
1.0
 12
0.0
 22
17.948
 13
0.0
 23
0.0
 14
0.5
 24
0.5
 15
10.0
 25
10.0
 16
0.0
 26
0.0
 36
1.0
 17
0.0
 27
0.0
 37
0.0
 40
35.896
 41
1.255104895104899
 42
50.0
 43
0.0
 44
0.0
 50
0.0
 51
0.0
 71
     0
 72
   100
 73
     1
 74
     1
 75
     0
 76
     0
 77
     0
 78
     0
281
     0
 65
     1
110
0.0
120
0.0
130
0.0
111
1.0
121
0.0
131
0.0
112
0.0
122
1.0
132
0.0
 79
     0
146
0.0
 60
     3
 61
     5
292
     1
282
     0
141
0.0
142
0.0
 63
   256
  0
ENDTAB
  0
TABLE
  2
LTYPE
  5
5
330
0
100
AcDbSymbolTable
 70
     2
  0
LTYPE
  5
12
330
5
100
AcDbSymbolTableRecord
100
AcDbLinetypeTableRecord
  2
ByBlock
 70
     0
  3

 72
    65
 73
     0
 40
0.0
  0
LTYPE
  5
11
330
5
100
AcDbSymbolTableRecord
100
AcDbLinetypeTableRecord
  2
ByLayer
 70
     0
  3

 72
    65
 73
     0
 40
0.0
  0
LTYPE
  5
10
330
5
100
AcDbSymbolTableRecord
100
AcDbLinetypeTableRecord
  2
Continuous
 70
     0
  3
Solid line
 72
    65
 73
     0
 40
0.0
  0
LTYPE
  5
81
330
5
100
AcDbSymbolTableRecord
100
AcDbLinetypeTableRecord
  2
Dashed
 70
     0
  3
Dashed, __ __ __ __ __ __ __ __ __ __ __ __ __ _
 72
    65
 73
     2
 40
0.75
 49
0.5
 74
     0
 49
-0.25
 74
     0
  0
ENDTAB
  0
TABLE
  2
LAYER
  5
4
330
0
100
AcDbSymbolTable
 70
     4
  0
LAYER
  5
F
330
4
100
AcDbSymbolTableRecord
100
AcDbLayerTableRecord
  2
0
 70
     0
 62
     7
  6
Continuous
370
    -3
390
2E7
347
2EB
  0
LAYER
  5
5C
330
4
100
AcDbSymbolTableRecord
100
AcDbLayerTableRecord
  2
Nomi pareti
 70
     0
 62
     7
  6
Continuous
370
    -3
390
2E7
347
2EB
  0
LAYER
  5
80
330
4
100
AcDbSymbolTableRecord
100
AcDbLayerTableRecord
  2
Connessioni a trazione
 70
     0
 62
     7
  6
Dashed
370
    -3
390
2E7
347
2EB
  0
LAYER
  5
8D
330
4
100
AcDbSymbolTableRecord
100
AcDbLayerTableRecord
  2
Connessioni a taglio
 70
     0
 62
     7
  6
Dashed
370
    -3
390
2E7
347
2EB
  0
ENDTAB
  0
TABLE
  2
STYLE
  5
6
330
0
100
AcDbSymbolTable
 70
     1
  0
STYLE
  5
13
330
6
100
AcDbSymbolTableRecord
100
AcDbTextStyleTableRecord
  2
Standard
 70
     0
 40
0.0
 41
1.0
 50
0.0
 71
     0
 42
0.0
  3
simplex.shx
  4

  0
ENDTAB
  0
TABLE
  2
VIEW
  5
2
330
0
100
AcDbSymbolTable
 70
     0
  0
ENDTAB
  0
TABLE
  2
UCS
  5
9
330
0
100
AcDbSymbolTable
 70
     0
  0
ENDTAB
  0
TABLE
  2
APPID
  5
3
330
0
100
AcDbSymbolTable
 70
     2
  0
APPID
  5
14
330
3
100
AcDbSymbolTableRecord
100
AcDbRegAppTableRecord
  2
ACAD
 70
     0
  0
APPID
  5
2B9
330
3
100
AcDbSymbolTableRecord
100
AcDbRegAppTableRecord
  2
AcCmTransparency
 70
     0
  0
ENDTAB
  0
TABLE
  2
DIMSTYLE
  5
7
330
0
100
AcDbSymbolTable
 70
     1
100
AcDbDimStyleTable
 71
     1
340
15
  0
DIMSTYLE
105
15
330
7
100
AcDbSymbolTableRecord
100
AcDbDimStyleTableRecord
  2
Standard
 70
     0
  3
<>
 73
     0
 74
     0
 77
     1
271
     2
340
13
  0
ENDTAB
  0
TABLE
  2
BLOCK_RECORD
  5
A
330
0
100
AcDbSymbolTable
 70
     2
  0
BLOCK_RECORD
  5
17
330
A
100
AcDbSymbolTableRecord
100
AcDbBlockTableRecord
  2
*Model_Space
340
1B
 70
     0
280
     1
281
     0
  0
BLOCK_RECORD
  5
2B3
330
A
100
AcDbSymbolTableRecord
100
AcDbBlockTableRecord
  2
*Paper_Space
340
2B8
 70
     0
280
     1
281
     0
  0
BLOCK_RECORD
  5
7C
330
A
100
AcDbSymbolTableRecord
100
AcDbBlockTableRecord
  2
HoldDown
340
0
102
{BLKREFS
331
7B
331
84
331
90
331
92
331
99
331
9B
331
A2
331
A4
331
AB
331
AD
331
B4
331
B6
331
BD
331
BF
331
C6
331
C8
331
CF
331
D1
331
D8
331
DA
331
E1
331
E3
331
EA
331
EC
331
F3
331
F5
331
FC
331
FE
331
105
331
107
331
10E
331
110
331
117
331
119
331
120
331
122
331
129
331
12B
331
132
331
134
331
13B
331
13D
331
144
331
146
331
14D
331
14F
331
156
331
158
331
15F
331
161
331
168
331
16A
331
171
331
173
331
17A
331
17C
331
183
331
185
331
18C
331
18E
331
1DF
331
1E1
331
1E8
331
1EA
331
1F1
331
1F3
331
1FA
331
1FC
331
203
331
205
331
20C
331
20E
331
215
331
217
331
21E
331
220
331
227
331
229
331
230
331
232
331
239
331
23B
331
242
331
244
331
24B
331
24D
331
254
331
256
331
25D
331
25F
331
266
331
268
331
26F
331
271
331
278
331
27A
331
281
331
283
331
28A
331
290
331
296
331
29C
102
}
 70
     0
280
     1
281
     0
1001
ACAD
1000
DesignCenter Data
1002
{
1070
     1
1070
     0
1002
}
  0
BLOCK_RECORD
  5
89
330
A
100
AcDbSymbolTableRecord
100
AcDbBlockTableRecord
  2
AngleBracket
340
0
102
{BLKREFS
331
88
331
96
331
9F
331
A8
331
B1
331
BA
331
C3
331
CC
331
D5
331
DE
331
E7
331
F0
331
F9
331
102
331
10B
331
114
331
11D
331
126
331
12F
331
138
331
141
331
14A
331
153
331
15C
331
165
331
16E
331
177
331
180
331
189
331
192
331
1E5
331
1EE
331
1F7
331
200
331
209
331
212
331
21B
331
224
331
22D
331
236
331
23F
331
248
331
251
331
25A
331
263
331
26C
331
275
331
27E
331
287
331
2A2
331
2A5
331
2AB
331
2AE
102
}
 70
     0
280
     1
281
     0
1001
ACAD
1000
DesignCenter Data
1002
{
1070
     1
1070
     0
1002
}
  0
ENDTAB
  0
ENDSEC
  0
SECTION
  2
BLOCKS
  0
BLOCK
  5
19
330
17
100
AcDbEntity
  8
0
100
AcDbBlockBegin
  2
*Model_Space
 70
     0
 10
0.0
 20
0.0
 30
0.0
  3
*Model_Space
  1

  0
ENDBLK
  5
18
330
17
100
AcDbEntity
  8
0
100
AcDbBlockEnd
  0
BLOCK
  5
2B5
330
2B3
100
AcDbEntity
 67
     1
  8
0
100
AcDbBlockBegin
  2
*Paper_Space
 70
     0
 10
0.0
 20
0.0
 30
0.0
  3
*Paper_Space
  1

  0
ENDBLK
  5
2B4
330
2B3
100
AcDbEntity
 67
     1
  8
0
100
AcDbBlockEnd
  0
BLOCK
  5
7E
330
7C
100
AcDbEntity
  8
0
100
AcDbBlockBegin
  2
HoldDown
 70
     0
 10
0.0
 20
0.0
 30
0.0
  3
HoldDown
  1

  0
HATCH
  5
7F
330
7C
100
AcDbEntity
  8
Connessioni a trazione
 62
     0
100
AcDbHatch
 10
0.0
 20
0.0
 30
0.0
210
0.0
220
0.0
230
1.0
  2
SOLID
 70
     1
 71
     0
 91
        1
 92
        5
 93
        1
 72
     2
 10
0.0
 20
0.0
 40
0.1
 50
0.0
 51
360.0
 73
     1
 97
        0
 75
     0
 76
     0
 47
0.0
 98
        1
 10
0.0
 20
0.0
450
        0
451
        0
460
0.0
461
0.0
452
        0
462
0.0
453
        0
470

1001
ACAD
1010
0.0
1020
0.0
1030
0.0
  0
CIRCLE
  5
82
330
7C
100
AcDbEntity
  8
Connessioni a trazione
 62
     0
100
AcDbCircle
 10
0.0
 20
0.0
 30
0.0
 40
0.1
  0
ENDBLK
  5
7D
330
7C
100
AcDbEntity
  8
0
100
AcDbBlockEnd
  0
BLOCK
  5
8B
330
89
100
AcDbEntity
  8
0
100
AcDbBlockBegin
  2
AngleBracket
 70
     0
 10
0.3
 20
0.26
 30
0.0
  3
AngleBracket
  1

  0
LWPOLYLINE
  5
8C
330
89
100
AcDbEntity
  8
Connessioni a taglio
 62
     0
100
AcDbPolyline
 90
        3
 70
     1
 43
0.0
 10
0.0
 20
0.0
 10
0.6
 20
0.0
 10
0.3
 20
0.5200000000000001
  0
ENDBLK
  5
8A
330
89
100
AcDbEntity
  8
0
100
AcDbBlockEnd
  0
ENDSEC
  0
SECTION
  2
ENTITIES
  0
LWPOLYLINE
  5
1D
330
17
100
AcDbEntity
  8
0
100
AcDbPolyline
 90
        4
 70
     1
 43
0.0
 10
-1.0
 20
16.948
 10
26.6
 20
16.948
 10
26.6
 20
33.896
 10
-1.0
 20
33.896
  0
TEXT
  5
1E
330
17
100
AcDbEntity
  8
0
100
AcDbText
 10
-0.9
 20
17.048
 30
0.0
 40
0.2
  1
Piano 0 (altezza h: 0.00 m)
100
AcDbText
  0
HATCH
  5
1F
330
17
100
AcDbEntity
  8
0
 62
     9
100
AcDbHatch
 10
0.0
 20
0.0
 30
0.0
210
0.0
220
0.0
230
1.0
  2
LINE45
 70
     0
 71
     0
 91
        1
 92
        7
 72
     0
 73
     1
 93
        4
 10
1.0
 20
23.725
 10
1.0
 20
23.625
 10
2.0
 20
23.625
 10
2.0
 20
23.725
 97
        0
 75
     0
 76
     1
 52
0.0
 41
1.0
 77
     0
 78
     1
 53
45.0
 43
0.0
 44
0.0
 45
-0.0883883476483184
 46
0.0883883476483184
 79
     0
 47
0.0
 98
        1
 10
0.0
 20
0.0
1001
ACAD
1010
0.0
1020
0.0
1030
0.0
  0
LWPOLYLINE
  5
20
330
17
100
AcDbEntity
  8
0
100
AcDbPolyline
 90
        4
 70
     1
 43
0.0
 10
1.0
 20
23.725
 10
1.0
 20
23.625
 10
2.0
 20
23.625
 10
2.0
 20
23.725
  0
HATCH
  5
21
330
17
100
AcDbEntity
  8
0
 62
     9
100
AcDbHatch
 10
0.0
 20
0.0
 30
0.0
210
0.0
220
0.0
230
1.0
  2
LINE45
 70
     0
 71
     0
 91
        1
 92
        7
 72
     0
 73
     1
 93
        4
 10
3.399999999999999
 20
23.725
 10
3.399999999999999
 20
23.625
 10
6.4
 20
23.625
 10
6.4
 20
23.725
 97
        0
 75
     0
 76
     1
 52
0.0
 41
1.0
 77
     0
 78
     1
 53
45.0
 43
0.0
 44
0.0
 45
-0.0883883476483184
 46
0.0883883476483184
 79
     0
 47
0.0
 98
        1
 10
0.0
 20
0.0
1001
ACAD
1010
0.0
1020
0.0
1030
0.0
  0
LWPOLYLINE
  5
22
330
17
100
AcDbEntity
  8
0
100
AcDbPolyline
 90
        4
 70
     1
 43
0.0
 10
3.399999999999999
 20
23.725
 10
3.399999999999999
 20
23.625
 10
6.4
 20
23.625
 10
6.4
 20
23.725
  0
HATCH
  5
23
330
17
100
AcDbEntity
  8
0
 62
     9
100
AcDbHatch
 10
0.0
 20
0.0
 30
0.0
210
0.0
220
0.0
230
1.0
  2
LINE45
 70
     0
 71
     0
 91
        1
 92
        7
 72
     0
 73
     1
 93
        4
 10
6.45
 20
23.675
 10
6.349999999999999
 20
23.675
 10
6.349999999999999
 20
22.675
 10
6.45
 20
22.675
 97
        0
 75
     0
 76
     1
 52
0.0
 41
1.0
 77
     0
 78
     1
 53
45.0
 43
0.0
 44
0.0
 45
-0.0883883476483184
 46
0.0883883476483184
 79
     0
 47
0.0
 98
        1
 10
0.0
 20
0.0
1001
ACAD
1010
0.0
1020
0.0
1030
0.0
  0
LWPOLYLINE
  5
24
330
17
100
AcDbEntity
  8
0
100
AcDbPolyline
 90
        4
 70
     1
 43
0.0
 10
6.45
 20
23.675
 10
6.349999999999999
 20
23.675
 10
6.349999999999999
 20
22.675
 10
6.45
 20
22.675
  0
HATCH
  5
25
330
17
100
AcDbEntity
  8
0
 62
     9
100
AcDbHatch
 10
0.0
 20
0.0
 30
0.0
210
0.0
220
0.0
230
1.0
  2
LINE45
 70
     0
 71
     0
 91
        1
 92
        7
 72
     0
 73
     1
 93
        4
 10
11.45
 20
23.675
 10
11.35
 20
23.675
 10
11.35
 20
22.675
 10
11.45
 20
22.675
 97
        0
 75
     0
 76
     1
 52
0.0
 41
1.0
 77
     0
 78
     1
 53
45.0
 43
0.0
 44
0.0
 45
-0.0883883476483184
 46
0.0883883476483184
 79
     0
 47
0.0
 98
        1
 10
0.0
 20
0.0
1001
ACAD
1010
0.0
1020
0.0
1030
0.0
  0
LWPOLYLINE
  5
26
330
17
100
AcDbEntity
  8
0
100
AcDbPolyline
 90
        4
 70
     1
 43
0.0
 10
11.45
 20
23.675
 10
11.35
 20
23.675
 10
11.35
 20
22.675
 10
11.45
 20
22.675
  0
HATCH
  5
27
330
17
100
AcDbEntity
  8
0
 62
     9
100
AcDbHatch
 10
0.0
 20
0.0
 30
0.0
210
0.0
220
0.0
230
1.0
  2
LINE45
 70
     0
 71
     0
 91
        1
 92
        7
 72
     0
 73
     1
 93
        4
 10
16.2
 20
23.725
 10
16.2
 20
23.625
 10
16.8
 20
23.625
 10
16.8
 20
23.725
 97
        0
 75
     0
 76
     1
 52
0.0
 41
1.0
 77
     0
 78
     1
 53
45.0
 43
0.0
 44
0.0
 45
-0.0883883476483184
 46
0.0883883476483184
 79
     0
 47
0.0
 98
        1
 10
0.0
 20
0.0
1001
ACAD
1010
0.0
1020
0.0
1030
0.0
  0
LWPOLYLINE
  5
28
330
17
100
AcDbEntity
  8
0
100
AcDbPolyline
 90
        4
 70
     1
 43
0.0
 10
16.2
 20
23.725
 10
16.2
 20
23.625
 10
16.8
 20
23.625
 10
16.8
 20
23.725
  0
HATCH
  5
29
330
17
100
AcDbEntity
  8
0
 62
     9
100
AcDbHatch
 10
0.0
 20
0.0
 30
0.0
210
0.0
220
0.0
230
1.0
  2
LINE45
 70
     0
 71
     0
 91
        1
 92
        7
 72
     0
 73
     1
 93
        4
 10
0.95
 20
23.675
 10
1.05
 20
23.675
 10
1.05
 20
25.175
 10
0.95
 20
25.175
 97
        0
 75
     0
 76
     1
 52
0.0
 41
1.0
 77
     0
 78
     1
 53
45.0
 43
0.0
 44
0.0
 45
-0.0883883476483184
 46
0.0883883476483184
 79
     0
 47
0.0
 98
        1
 10
0.0
 20
0.0
1001
ACAD
1010
0.0
1020
0.0
1030
0.0
  0
LWPOLYLINE
  5
2A
330
17
100
AcDbEntity
  8
0
100
AcDbPolyline
 90
        4
 70
     1
 43
0.0
 10
0.95
 20
23.675
 10
1.05
 20
23.675
 10
1.05
 20
25.175
 10
0.95
 20
25.175
  0
HATCH
  5
2B
330
17
100
AcDbEntity
  8
0
 62
     9
100
AcDbHatch
 10
0.0
 20
0.0
 30
0.0
210
0.0
220
0.0
230
1.0
  2
LINE45
 70
     0
 71
     0
 91
        1
 92
        7
 72
     0
 73
     1
 93
        4
 10
0.95
 20
26.575
 10
1.05
 20
26.575
 10
1.05
 20
29.075
 10
0.95
 20
29.075
 97
        0
 75
     0
 76
     1
 52
0.0
 41
1.0
 77
     0
 78
     1
 53
45.0
 43
0.0
 44
0.0
 45
-0.0883883476483184
 46
0.0883883476483184
 79
     0
 47
0.0
 98
        1
 10
0.0
 20
0.0
1001
ACAD
1010
0.0
1020
0.0
1030
0.0
  0
LWPOLYLINE
  5
2C
330
17
100
AcDbEntity
  8
0
100
AcDbPolyline
 90
        4
 70
     1
 43
0.0
 10
0.95
 20
26.575
 10
1.05
 20
26.575
 10
1.05
 20
29.075
 10
0.95
 20
29.075
  0
HATCH
  5
2D
330
17
100
AcDbEntity
  8
0
 62
     9
100
AcDbHatch
 10
0.0
 20
0.0
 30
0.0
210
0.0
220
0.0
230
1.0
  2
LINE45
 70
     0
 71
     0
 91
        1
 92
        7
 72
     0
 73
     1
 93
        4
 10
0.95
 20
30.475
 10
1.05
 20
30.475
 10
1.05
 20
31.975
 10
0.95
 20
31.975
 97
        0
 75
     0
 76
     1
 52
0.0
 41
1.0
 77
     0
 78
     1
 53
45.0
 43
0.0
 44
0.0
 45
-0.0883883476483184
 46
0.0883883476483184
 79
     0
 47
0.0
 98
        1
 10
0.0
 20
0.0
1001
ACAD
1010
0.0
1020
0.0
1030
0.0
  0
LWPOLYLINE
  5
2E
330
17
100
AcDbEntity
  8
0
100
AcDbPolyline
 90
        4
 70
     1
 43
0.0
 10
0.95
 20
30.475
 10
1.05
 20
30.475
 10
1.05
 20
31.975
 10
0.95
 20
31.975
  0
HATCH
  5
2F
330
17
100
AcDbEntity
  8
0
 62
     9
100
AcDbHatch
 10
0.0
 20
0.0
 30
0.0
210
0.0
220
0.0
230
1.0
  2
LINE45
 70
     0
 71
     0
 91
        1
 92
        7
 72
     0
 73
     1
 93
        4
 10
11.4
 20
23.725
 10
11.4
 20
23.625
 10
14.4
 20
23.625
 10
14.4
 20
23.725
 97
        0
 75
     0
 76
     1
 52
0.0
 41
1.0
 77
     0
 78
     1
 53
45.0
 43
0.0
 44
0.0
 45
-0.0883883476483184
 46
0.0883883476483184
 79
     0
 47
0.0
 98
        1
 10
0.0
 20
0.0
1001
ACAD
1010
0.0
1020
0.0
1030
0.0
  0
LWPOLYLINE
  5
30
330
17
100
AcDbEntity
  8
0
100
AcDbPolyline
 90
        4
 70
     1
 43
0.0
 10
11.4
 20
23.725
 10
11.4
 20
23.625
 10
14.4
 20
23.625
 10
14.4
 20
23.725
  0
HATCH
  5
31
330
17
100
AcDbEntity
  8
0
 62
     9
100
AcDbHatch
 10
0.0
 20
0.0
 30
0.0
210
0.0
220
0.0
230
1.0
  2
LINE45
 70
     0
 71
     0
 91
        1
 92
        7
 72
     0
 73
     1
 93
        4
 10
1.0
 20
32.025
 10
1.0
 20
31.925
 10
3.399999999999999
 20
31.925
 10
3.399999999999999
 20
32.025
 97
        0
 75
     0
 76
     1
 52
0.0
 41
1.0
 77
     0
 78
     1
 53
45.0
 43
0.0
 44
0.0
 45
-0.0883883476483184
 46
0.0883883476483184
 79
     0
 47
0.0
 98
        1
 10
0.0
 20
0.0
1001
ACAD
1010
0.0
1020
0.0
1030
0.0
  0
LWPOLYLINE
  5
32
330
17
100
AcDbEntity
  8
0
100
AcDbPolyline
 90
        4
 70
     1
 43
0.0
 10
1.0
 20
32.025
 10
1.0
 20
31.925
 10
3.399999999999999
 20
31.925
 10
3.399999999999999
 20
32.025
  0
HATCH
  5
33
330
17
100
AcDbEntity
  8
0
 62
     9
100
AcDbHatch
 10
0.0
 20
0.0
 30
0.0
210
0.0
220
0.0
230
1.0
  2
LINE45
 70
     0
 71
     0
 91
        1
 92
        7
 72
     0
 73
     1
 93
        4
 10
12.8
 20
31.925
 10
12.8
 20
32.025
 10
8.9
 20
32.025
 10
8.9
 20
31.925
 97
        0
 75
     0
 76
     1
 52
0.0
 41
1.0
 77
     0
 78
     1
 53
45.0
 43
0.0
 44
0.0
 45
-0.0883883476483184
 46
0.0883883476483184
 79
     0
 47
0.0
 98
        1
 10
0.0
 20
0.0
1001
ACAD
1010
0.0
1020
0.0
1030
0.0
  0
LWPOLYLINE
  5
34
330
17
100
AcDbEntity
  8
0
100
AcDbPolyline
 90
        4
 70
     1
 43
0.0
 10
12.8
 20
31.925
 10
12.8
 20
32.025
 10
8.9
 20
32.025
 10
8.9
 20
31.925
  0
HATCH
  5
35
330
17
100
AcDbEntity
  8
0
 62
     9
100
AcDbHatch
 10
0.0
 20
0.0
 30
0.0
210
0.0
220
0.0
230
1.0
  2
LINE45
 70
     0
 71
     0
 91
        1
 92
        7
 72
     0
 73
     1
 93
        4
 10
14.4
 20
32.025
 10
14.4
 20
31.925
 10
16.8
 20
31.925
 10
16.8
 20
32.025
 97
        0
 75
     0
 76
     1
 52
0.0
 41
1.0
 77
     0
 78
     1
 53
45.0
 43
0.0
 44
0.0
 45
-0.0883883476483184
 46
0.0883883476483184
 79
     0
 47
0.0
 98
        1
 10
0.0
 20
0.0
1001
ACAD
1010
0.0
1020
0.0
1030
0.0
  0
LWPOLYLINE
  5
36
330
17
100
AcDbEntity
  8
0
100
AcDbPolyline
 90
        4
 70
     1
 43
0.0
 10
14.4
 20
32.025
 10
14.4
 20
31.925
 10
16.8
 20
31.925
 10
16.8
 20
32.025
  0
HATCH
  5
37
330
17
100
AcDbEntity
  8
0
 62
     9
100
AcDbHatch
 10
0.0
 20
0.0
 30
0.0
210
0.0
220
0.0
230
1.0
  2
LINE45
 70
     0
 71
     0
 91
        1
 92
        7
 72
     0
 73
     1
 93
        4
 10
16.85
 20
18.925
 10
16.85
 20
18.825
 10
17.8
 20
18.825
 10
17.8
 20
18.925
 97
        0
 75
     0
 76
     1
 52
0.0
 41
1.0
 77
     0
 78
     1
 53
45.0
 43
0.0
 44
0.0
 45
-0.0883883476483184
 46
0.0883883476483184
 79
     0
 47
0.0
 98
        1
 10
0.0
 20
0.0
1001
ACAD
1010
0.0
1020
0.0
1030
0.0
  0
LWPOLYLINE
  5
38
330
17
100
AcDbEntity
  8
0
100
AcDbPolyline
 90
        4
 70
     1
 43
0.0
 10
16.85
 20
18.925
 10
16.85
 20
18.825
 10
17.8
 20
18.825
 10
17.8
 20
18.925
  0
HATCH
  5
39
330
17
100
AcDbEntity
  8
0
 62
     9
100
AcDbHatch
 10
0.0
 20
0.0
 30
0.0
210
0.0
220
0.0
230
1.0
  2
LINE45
 70
     0
 71
     0
 91
        1
 92
        7
 72
     0
 73
     1
 93
        4
 10
19.2
 20
18.925
 10
19.2
 20
18.825
 10
22.2
 20
18.825
 10
22.2
 20
18.925
 97
        0
 75
     0
 76
     1
 52
0.0
 41
1.0
 77
     0
 78
     1
 53
45.0
 43
0.0
 44
0.0
 45
-0.0883883476483184
 46
0.0883883476483184
 79
     0
 47
0.0
 98
        1
 10
0.0
 20
0.0
1001
ACAD
1010
0.0
1020
0.0
1030
0.0
  0
LWPOLYLINE
  5
3A
330
17
100
AcDbEntity
  8
0
100
AcDbPolyline
 90
        4
 70
     1
 43
0.0
 10
19.2
 20
18.925
 10
19.2
 20
18.825
 10
22.2
 20
18.825
 10
22.2
 20
18.925
  0
HATCH
  5
3B
330
17
100
AcDbEntity
  8
0
 62
     9
100
AcDbHatch
 10
0.0
 20
0.0
 30
0.0
210
0.0
220
0.0
230
1.0
  2
LINE45
 70
     0
 71
     0
 91
        1
 92
        7
 72
     0
 73
     1
 93
        4
 10
23.6
 20
18.925
 10
23.6
 20
18.825
 10
24.6
 20
18.825
 10
24.6
 20
18.925
 97
        0
 75
     0
 76
     1
 52
0.0
 41
1.0
 77
     0
 78
     1
 53
45.0
 43
0.0
 44
0.0
 45
-0.0883883476483184
 46
0.0883883476483184
 79
     0
 47
0.0
 98
        1
 10
0.0
 20
0.0
1001
ACAD
1010
0.0
1020
0.0
1030
0.0
  0
LWPOLYLINE
  5
3C
330
17
100
AcDbEntity
  8
0
100
AcDbPolyline
 90
        4
 70
     1
 43
0.0
 10
23.6
 20
18.925
 10
23.6
 20
18.825
 10
24.6
 20
18.825
 10
24.6
 20
18.925
  0
HATCH
  5
3D
330
17
100
AcDbEntity
  8
0
 62
     9
100
AcDbHatch
 10
0.0
 20
0.0
 30
0.0
210
0.0
220
0.0
230
1.0
  2
LINE45
 70
     0
 71
     0
 91
        1
 92
        7
 72
     0
 73
     1
 93
        4
 10
16.85
 20
31.975
 10
16.75
 20
31.975
 10
16.75
 20
29.605
 10
16.85
 20
29.605
 97
        0
 75
     0
 76
     1
 52
0.0
 41
1.0
 77
     0
 78
     1
 53
45.0
 43
0.0
 44
0.0
 45
-0.0883883476483184
 46
0.0883883476483184
 79
     0
 47
0.0
 98
        1
 10
0.0
 20
0.0
1001
ACAD
1010
0.0
1020
0.0
1030
0.0
  0
LWPOLYLINE
  5
3E
330
17
100
AcDbEntity
  8
0
100
AcDbPolyline
 90
        4
 70
     1
 43
0.0
 10
16.85
 20
31.975
 10
16.75
 20
31.975
 10
16.75
 20
29.605
 10
16.85
 20
29.605
  0
HATCH
  5
3F
330
17
100
AcDbEntity
  8
0
 62
     9
100
AcDbHatch
 10
0.0
 20
0.0
 30
0.0
210
0.0
220
0.0
230
1.0
  2
LINE45
 70
     0
 71
     0
 91
        1
 92
        7
 72
     0
 73
     1
 93
        4
 10
16.85
 20
29.655
 10
16.85
 20
29.555
 10
24.6
 20
29.555
 10
24.6
 20
29.655
 97
        0
 75
     0
 76
     1
 52
0.0
 41
1.0
 77
     0
 78
     1
 53
45.0
 43
0.0
 44
0.0
 45
-0.0883883476483184
 46
0.0883883476483184
 79
     0
 47
0.0
 98
        1
 10
0.0
 20
0.0
1001
ACAD
1010
0.0
1020
0.0
1030
0.0
  0
LWPOLYLINE
  5
40
330
17
100
AcDbEntity
  8
0
100
AcDbPolyline
 90
        4
 70
     1
 43
0.0
 10
16.85
 20
29.655
 10
16.85
 20
29.555
 10
24.6
 20
29.555
 10
24.6
 20
29.655
  0
HATCH
  5
41
330
17
100
AcDbEntity
  8
0
 62
     9
100
AcDbHatch
 10
0.0
 20
0.0
 30
0.0
210
0.0
220
0.0
230
1.0
  2
LINE45
 70
     0
 71
     0
 91
        1
 92
        7
 72
     0
 73
     1
 93
        4
 10
24.55
 20
18.875
 10
24.65
 20
18.875
 10
24.65
 20
20.375
 10
24.55
 20
20.375
 97
        0
 75
     0
 76
     1
 52
0.0
 41
1.0
 77
     0
 78
     1
 53
45.0
 43
0.0
 44
0.0
 45
-0.0883883476483184
 46
0.0883883476483184
 79
     0
 47
0.0
 98
        1
 10
0.0
 20
0.0
1001
ACAD
1010
0.0
1020
0.0
1030
0.0
  0
LWPOLYLINE
  5
42
330
17
100
AcDbEntity
  8
0
100
AcDbPolyline
 90
        4
 70
     1
 43
0.0
 10
24.55
 20
18.875
 10
24.65
 20
18.875
 10
24.65
 20
20.375
 10
24.55
 20
20.375
  0
HATCH
  5
43
330
17
100
AcDbEntity
  8
0
 62
     9
100
AcDbHatch
 10
0.0
 20
0.0
 30
0.0
210
0.0
220
0.0
230
1.0
  2
LINE45
 70
     0
 71
     0
 91
        1
 92
        7
 72
     0
 73
     1
 93
        4
 10
24.55
 20
28.105
 10
24.65
 20
28.105
 10
24.65
 20
29.605
 10
24.55
 20
29.605
 97
        0
 75
     0
 76
     1
 52
0.0
 41
1.0
 77
     0
 78
     1
 53
45.0
 43
0.0
 44
0.0
 45
-0.0883883476483184
 46
0.0883883476483184
 79
     0
 47
0.0
 98
        1
 10
0.0
 20
0.0
1001
ACAD
1010
0.0
1020
0.0
1030
0.0
  0
LWPOLYLINE
  5
44
330
17
100
AcDbEntity
  8
0
100
AcDbPolyline
 90
        4
 70
     1
 43
0.0
 10
24.55
 20
28.105
 10
24.65
 20
28.105
 10
24.65
 20
29.605
 10
24.55
 20
29.605
  0
HATCH
  5
45
330
17
100
AcDbEntity
  8
0
 62
     9
100
AcDbHatch
 10
0.0
 20
0.0
 30
0.0
210
0.0
220
0.0
230
1.0
  2
LINE45
 70
     0
 71
     0
 91
        1
 92
        7
 72
     0
 73
     1
 93
        4
 10
24.55
 20
21.975
 10
24.65
 20
21.975
 10
24.65
 20
26.505
 10
24.55
 20
26.505
 97
        0
 75
     0
 76
     1
 52
0.0
 41
1.0
 77
     0
 78
     1
 53
45.0
 43
0.0
 44
0.0
 45
-0.0883883476483184
 46
0.0883883476483184
 79
     0
 47
0.0
 98
        1
 10
0.0
 20
0.0
1001
ACAD
1010
0.0
1020
0.0
1030
0.0
  0
LWPOLYLINE
  5
46
330
17
100
AcDbEntity
  8
0
100
AcDbPolyline
 90
        4
 70
     1
 43
0.0
 10
24.55
 20
21.975
 10
24.65
 20
21.975
 10
24.65
 20
26.505
 10
24.55
 20
26.505
  0
HATCH
  5
47
330
17
100
AcDbEntity
  8
0
 62
     9
100
AcDbHatch
 10
0.0
 20
0.0
 30
0.0
210
0.0
220
0.0
230
1.0
  2
LINE45
 70
     0
 71
     0
 91
        1
 92
        7
 72
     0
 73
     1
 93
        4
 10
6.349999999999999
 20
23.675
 10
6.45
 20
23.675
 10
6.45
 20
26.475
 10
6.349999999999999
 20
26.475
 97
        0
 75
     0
 76
     1
 52
0.0
 41
1.0
 77
     0
 78
     1
 53
45.0
 43
0.0
 44
0.0
 45
-0.0883883476483184
 46
0.0883883476483184
 79
     0
 47
0.0
 98
        1
 10
0.0
 20
0.0
1001
ACAD
1010
0.0
1020
0.0
1030
0.0
  0
LWPOLYLINE
  5
48
330
17
100
AcDbEntity
  8
0
100
AcDbPolyline
 90
        4
 70
     1
 43
0.0
 10
6.349999999999999
 20
23.675
 10
6.45
 20
23.675
 10
6.45
 20
26.475
 10
6.349999999999999
 20
26.475
  0
HATCH
  5
49
330
17
100
AcDbEntity
  8
0
 62
     9
100
AcDbHatch
 10
0.0
 20
0.0
 30
0.0
210
0.0
220
0.0
230
1.0
  2
LINE45
 70
     0
 71
     0
 91
        1
 92
        7
 72
     0
 73
     1
 93
        4
 10
6.4
 20
22.725
 10
6.4
 20
22.625
 10
8.099999999999999
 20
22.625
 10
8.099999999999999
 20
22.725
 97
        0
 75
     0
 76
     1
 52
0.0
 41
1.0
 77
     0
 78
     1
 53
45.0
 43
0.0
 44
0.0
 45
-0.0883883476483184
 46
0.0883883476483184
 79
     0
 47
0.0
 98
        1
 10
0.0
 20
0.0
1001
ACAD
1010
0.0
1020
0.0
1030
0.0
  0
LWPOLYLINE
  5
4A
330
17
100
AcDbEntity
  8
0
100
AcDbPolyline
 90
        4
 70
     1
 43
0.0
 10
6.4
 20
22.725
 10
6.4
 20
22.625
 10
8.099999999999999
 20
22.625
 10
8.099999999999999
 20
22.725
  0
HATCH
  5
4B
330
17
100
AcDbEntity
  8
0
 62
     9
100
AcDbHatch
 10
0.0
 20
0.0
 30
0.0
210
0.0
220
0.0
230
1.0
  2
LINE45
 70
     0
 71
     0
 91
        1
 92
        7
 72
     0
 73
     1
 93
        4
 10
9.699999999999999
 20
22.725
 10
9.699999999999999
 20
22.625
 10
11.4
 20
22.625
 10
11.4
 20
22.725
 97
        0
 75
     0
 76
     1
 52
0.0
 41
1.0
 77
     0
 78
     1
 53
45.0
 43
0.0
 44
0.0
 45
-0.0883883476483184
 46
0.0883883476483184
 79
     0
 47
0.0
 98
        1
 10
0.0
 20
0.0
1001
ACAD
1010
0.0
1020
0.0
1030
0.0
  0
LWPOLYLINE
  5
4C
330
17
100
AcDbEntity
  8
0
100
AcDbPolyline
 90
        4
 70
     1
 43
0.0
 10
9.699999999999999
 20
22.725
 10
9.699999999999999
 20
22.625
 10
11.4
 20
22.625
 10
11.4
 20
22.725
  0
HATCH
  5
4D
330
17
100
AcDbEntity
  8
0
 62
     9
100
AcDbHatch
 10
0.0
 20
0.0
 30
0.0
210
0.0
220
0.0
230
1.0
  2
LINE45
 70
     0
 71
     0
 91
        1
 92
        7
 72
     0
 73
     1
 93
        4
 10
1.0
 20
27.875
 10
1.0
 20
27.775
 10
5.0
 20
27.775
 10
5.0
 20
27.875
 97
        0
 75
     0
 76
     1
 52
0.0
 41
1.0
 77
     0
 78
     1
 53
45.0
 43
0.0
 44
0.0
 45
-0.0883883476483184
 46
0.0883883476483184
 79
     0
 47
0.0
 98
        1
 10
0.0
 20
0.0
1001
ACAD
1010
0.0
1020
0.0
1030
0.0
  0
LWPOLYLINE
  5
4E
330
17
100
AcDbEntity
  8
0
100
AcDbPolyline
 90
        4
 70
     1
 43
0.0
 10
1.0
 20
27.875
 10
1.0
 20
27.775
 10
5.0
 20
27.775
 10
5.0
 20
27.875
  0
HATCH
  5
4F
330
17
100
AcDbEntity
  8
0
 62
     9
100
AcDbHatch
 10
0.0
 20
0.0
 30
0.0
210
0.0
220
0.0
230
1.0
  2
LINE45
 70
     0
 71
     0
 91
        1
 92
        7
 72
     0
 73
     1
 93
        4
 10
6.4
 20
27.875
 10
6.4
 20
27.775
 10
9.4
 20
27.775
 10
9.4
 20
27.875
 97
        0
 75
     0
 76
     1
 52
0.0
 41
1.0
 77
     0
 78
     1
 53
45.0
 43
0.0
 44
0.0
 45
-0.0883883476483184
 46
0.0883883476483184
 79
     0
 47
0.0
 98
        1
 10
0.0
 20
0.0
1001
ACAD
1010
0.0
1020
0.0
1030
0.0
  0
LWPOLYLINE
  5
50
330
17
100
AcDbEntity
  8
0
100
AcDbPolyline
 90
        4
 70
     1
 43
0.0
 10
6.4
 20
27.875
 10
6.4
 20
27.775
 10
9.4
 20
27.775
 10
9.4
 20
27.875
  0
HATCH
  5
51
330
17
100
AcDbEntity
  8
0
 62
     9
100
AcDbHatch
 10
0.0
 20
0.0
 30
0.0
210
0.0
220
0.0
230
1.0
  2
LINE45
 70
     0
 71
     0
 91
        1
 92
        7
 72
     0
 73
     1
 93
        4
 10
16.9
 20
29.605
 10
16.8
 20
29.605
 10
16.8
 20
25.605
 10
16.9
 20
25.605
 97
        0
 75
     0
 76
     1
 52
0.0
 41
1.0
 77
     0
 78
     1
 53
45.0
 43
0.0
 44
0.0
 45
-0.0883883476483184
 46
0.0883883476483184
 79
     0
 47
0.0
 98
        1
 10
0.0
 20
0.0
1001
ACAD
1010
0.0
1020
0.0
1030
0.0
  0
LWPOLYLINE
  5
52
330
17
100
AcDbEntity
  8
0
100
AcDbPolyline
 90
        4
 70
     1
 43
0.0
 10
16.9
 20
29.605
 10
16.8
 20
29.605
 10
16.8
 20
25.605
 10
16.9
 20
25.605
  0
HATCH
  5
53
330
17
100
AcDbEntity
  8
0
 62
     9
100
AcDbHatch
 10
0.0
 20
0.0
 30
0.0
210
0.0
220
0.0
230
1.0
  2
LINE45
 70
     0
 71
     0
 91
        1
 92
        7
 72
     0
 73
     1
 93
        4
 10
16.85
 20
24.24
 10
16.75
 20
24.24
 10
16.75
 20
23.675
 10
16.85
 20
23.675
 97
        0
 75
     0
 76
     1
 52
0.0
 41
1.0
 77
     0
 78
     1
 53
45.0
 43
0.0
 44
0.0
 45
-0.0883883476483184
 46
0.0883883476483184
 79
     0
 47
0.0
 98
        1
 10
0.0
 20
0.0
1001
ACAD
1010
0.0
1020
0.0
1030
0.0
  0
LWPOLYLINE
  5
54
330
17
100
AcDbEntity
  8
0
100
AcDbPolyline
 90
        4
 70
     1
 43
0.0
 10
16.85
 20
24.24
 10
16.75
 20
24.24
 10
16.75
 20
23.675
 10
16.85
 20
23.675
  0
HATCH
  5
55
330
17
100
AcDbEntity
  8
0
 62
     9
100
AcDbHatch
 10
0.0
 20
0.0
 30
0.0
210
0.0
220
0.0
230
1.0
  2
LINE45
 70
     0
 71
     0
 91
        1
 92
        7
 72
     0
 73
     1
 93
        4
 10
9.349999999999999
 20
27.825
 10
9.449999999999999
 20
27.825
 10
9.449999999999999
 20
31.975
 10
9.349999999999999
 20
31.975
 97
        0
 75
     0
 76
     1
 52
0.0
 41
1.0
 77
     0
 78
     1
 53
45.0
 43
0.0
 44
0.0
 45
-0.0883883476483184
 46
0.0883883476483184
 79
     0
 47
0.0
 98
        1
 10
0.0
 20
0.0
1001
ACAD
1010
0.0
1020
0.0
1030
0.0
  0
LWPOLYLINE
  5
56
330
17
100
AcDbEntity
  8
0
100
AcDbPolyline
 90
        4
 70
     1
 43
0.0
 10
9.349999999999999
 20
27.825
 10
9.449999999999999
 20
27.825
 10
9.449999999999999
 20
31.975
 10
9.349999999999999
 20
31.975
  0
HATCH
  5
57
330
17
100
AcDbEntity
  8
0
 62
     9
100
AcDbHatch
 10
0.0
 20
0.0
 30
0.0
210
0.0
220
0.0
230
1.0
  2
LINE45
 70
     0
 71
     0
 91
        1
 92
        7
 72
     0
 73
     1
 93
        4
 10
11.35
 20
23.675
 10
11.45
 20
23.675
 10
11.45
 20
27.675
 10
11.35
 20
27.675
 97
        0
 75
     0
 76
     1
 52
0.0
 41
1.0
 77
     0
 78
     1
 53
45.0
 43
0.0
 44
0.0
 45
-0.0883883476483184
 46
0.0883883476483184
 79
     0
 47
0.0
 98
        1
 10
0.0
 20
0.0
1001
ACAD
1010
0.0
1020
0.0
1030
0.0
  0
LWPOLYLINE
  5
58
330
17
100
AcDbEntity
  8
0
100
AcDbPolyline
 90
        4
 70
     1
 43
0.0
 10
11.35
 20
23.675
 10
11.45
 20
23.675
 10
11.45
 20
27.675
 10
11.35
 20
27.675
  0
HATCH
  5
59
330
17
100
AcDbEntity
  8
0
 62
     9
100
AcDbHatch
 10
0.0
 20
0.0
 30
0.0
210
0.0
220
0.0
230
1.0
  2
LINE45
 70
     0
 71
     0
 91
        1
 92
        7
 72
     0
 73
     1
 93
        4
 10
5.0
 20
32.025
 10
5.0
 20
31.925
 10
8.9
 20
31.925
 10
8.9
 20
32.025
 97
        0
 75
     0
 76
     1
 52
0.0
 41
1.0
 77
     0
 78
     1
 53
45.0
 43
0.0
 44
0.0
 45
-0.0883883476483184
 46
0.0883883476483184
 79
     0
 47
0.0
 98
        1
 10
0.0
 20
0.0
1001
ACAD
1010
0.0
1020
0.0
1030
0.0
  0
LWPOLYLINE
  5
5A
330
17
100
AcDbEntity
  8
0
100
AcDbPolyline
 90
        4
 70
     1
 43
0.0
 10
5.0
 20
32.025
 10
5.0
 20
31.925
 10
8.9
 20
31.925
 10
8.9
 20
32.025
  0
MTEXT
  5
5B
330
17
100
AcDbEntity
  8
Nomi pareti
100
AcDbMText
 10
1.5
 20
23.985
 30
0.0
 40
0.2
 41
0.9
 46
0.0
 71
     5
 72
     5
  1
Parete 1
 73
     1
 44
1.0
1001
ACAD
1000
MTEXTBEGIN
1070
    73
1070
     1
1070
    44
1040
1.0
1070
    74
1070
     0
1000
MTEXTEND
  0
MTEXT
  5
5D
330
17
100
AcDbEntity
  8
Nomi pareti
100
AcDbMText
 10
4.9
 20
23.985
 30
0.0
 40
0.2
 41
2.7
 46
0.0
 71
     5
 72
     5
  1
Parete 3
 73
     1
 44
1.0
1001
ACAD
1000
MTEXTBEGIN
1070
    73
1070
     1
1070
    44
1040
1.0
1070
    74
1070
     0
1000
MTEXTEND
  0
MTEXT
  5
5E
330
17
100
AcDbEntity
  8
Nomi pareti
100
AcDbMText
 10
6.709999999999999
 20
23.175
 30
0.0
 40
0.2
 41
0.9
 46
0.0
 71
     5
 72
     5
  1
Parete 4
 11
-0.0000000000000002
 21
-1.0
 31
0.0
 73
     1
 44
1.0
1001
ACAD
1000
MTEXTBEGIN
1070
    73
1070
     1
1070
    44
1040
1.0
1070
    74
1070
     0
1000
MTEXTEND
  0
MTEXT
  5
5F
330
17
100
AcDbEntity
  8
Nomi pareti
100
AcDbMText
 10
11.71
 20
23.175
 30
0.0
 40
0.2
 41
0.9
 46
0.0
 71
     5
 72
     5
  1
Parete 6
 11
-0.0000000000000002
 21
-1.0
 31
0.0
 73
     1
 44
1.0
1001
ACAD
1000
MTEXTBEGIN
1070
    73
1070
     1
1070
    44
1040
1.0
1070
    74
1070
     0
1000
MTEXTEND
  0
MTEXT
  5
60
330
17
100
AcDbEntity
  8
Nomi pareti
100
AcDbMText
 10
16.5
 20
23.985
 30
0.0
 40
0.2
 41
0.5400000000000011
 46
0.0
 71
     5
 72
     5
  1
Parete 8
 73
     1
 44
1.0
1001
ACAD
1000
MTEXTBEGIN
1070
    73
1070
     1
1070
    44
1040
1.0
1070
    74
1070
     0
1000
MTEXTEND
  0
MTEXT
  5
61
330
17
100
AcDbEntity
  8
Nomi pareti
100
AcDbMText
 10
1.31
 20
24.425
 30
0.0
 40
0.2
 41
1.35
 46
0.0
 71
     5
 72
     5
  1
Parete 9
 11
-0.0000000000000002
 21
-1.0
 31
0.0
 73
     1
 44
1.0
1001
ACAD
1000
MTEXTBEGIN
1070
    73
1070
     1
1070
    44
1040
1.0
1070
    74
1070
     0
1000
MTEXTEND
  0
MTEXT
  5
62
330
17
100
AcDbEntity
  8
Nomi pareti
100
AcDbMText
 10
1.31
 20
27.825
 30
0.0
 40
0.2
 41
2.25
 46
0.0
 71
     5
 72
     5
  1
Parete 11
 11
-0.0000000000000002
 21
-1.0
 31
0.0
 73
     1
 44
1.0
1001
ACAD
1000
MTEXTBEGIN
1070
    73
1070
     1
1070
    44
1040
1.0
1070
    74
1070
     0
1000
MTEXTEND
  0
MTEXT
  5
63
330
17
100
AcDbEntity
  8
Nomi pareti
100
AcDbMText
 10
1.31
 20
31.225
 30
0.0
 40
0.2
 41
1.35
 46
0.0
 71
     5
 72
     5
  1
Parete 13
 11
-0.0000000000000002
 21
-1.0
 31
0.0
 73
     1
 44
1.0
1001
ACAD
1000
MTEXTBEGIN
1070
    73
1070
     1
1070
    44
1040
1.0
1070
    74
1070
     0
1000
MTEXTEND
  0
MTEXT
  5
64
330
17
100
AcDbEntity
  8
Nomi pareti
100
AcDbMText
 10
12.9
 20
23.985
 30
0.0
 40
0.2
 41
2.7
 46
0.0
 71
     5
 72
     5
  1
Parete 14
 73
     1
 44
1.0
1001
ACAD
1000
MTEXTBEGIN
1070
    73
1070
     1
1070
    44
1040
1.0
1070
    74
1070
     0
1000
MTEXTEND
  0
MTEXT
  5
65
330
17
100
AcDbEntity
  8
Nomi pareti
100
AcDbMText
 10
2.2
 20
32.285
 30
0.0
 40
0.2
 41
2.16
 46
0.0
 71
     5
 72
     5
  1
Parete 15
 73
     1
 44
1.0
1001
ACAD
1000
MTEXTBEGIN
1070
    73
1070
     1
1070
    44
1040
1.0
1070
    74
1070
     0
1000
MTEXTEND
  0
MTEXT
  5
66
330
17
100
AcDbEntity
  8
Nomi pareti
100
AcDbMText
 10
10.85
 20
32.285
 30
0.0
 40
0.2
 41
3.509999999999999
 46
0.0
 71
     5
 72
     5
  1
Parete 81
 73
     1
 44
1.0
1001
ACAD
1000
MTEXTBEGIN
1070
    73
1070
     1
1070
    44
1040
1.0
1070
    74
1070
     0
1000
MTEXTEND
  0
MTEXT
  5
67
330
17
100
AcDbEntity
  8
Nomi pareti
100
AcDbMText
 10
15.6
 20
32.285
 30
0.0
 40
0.2
 41
2.16
 46
0.0
 71
     5
 72
     5
  1
Parete 21
 73
     1
 44
1.0
1001
ACAD
1000
MTEXTBEGIN
1070
    73
1070
     1
1070
    44
1040
1.0
1070
    74
1070
     0
1000
MTEXTEND
  0
MTEXT
  5
68
330
17
100
AcDbEntity
  8
Nomi pareti
100
AcDbMText
 10
17.325
 20
19.185
 30
0.0
 40
0.2
 41
0.8550000000000011
 46
0.0
 71
     5
 72
     5
  1
Parete 48
 73
     1
 44
1.0
1001
ACAD
1000
MTEXTBEGIN
1070
    73
1070
     1
1070
    44
1040
1.0
1070
    74
1070
     0
1000
MTEXTEND
  0
MTEXT
  5
69
330
17
100
AcDbEntity
  8
Nomi pareti
100
AcDbMText
 10
20.7
 20
19.185
 30
0.0
 40
0.2
 41
2.7
 46
0.0
 71
     5
 72
     5
  1
Parete 50
 73
     1
 44
1.0
1001
ACAD
1000
MTEXTBEGIN
1070
    73
1070
     1
1070
    44
1040
1.0
1070
    74
1070
     0
1000
MTEXTEND
  0
MTEXT
  5
6A
330
17
100
AcDbEntity
  8
Nomi pareti
100
AcDbMText
 10
24.1
 20
19.185
 30
0.0
 40
0.2
 41
0.9
 46
0.0
 71
     5
 72
     5
  1
Parete 53
 73
     1
 44
1.0
1001
ACAD
1000
MTEXTBEGIN
1070
    73
1070
     1
1070
    44
1040
1.0
1070
    74
1070
     0
1000
MTEXTEND
  0
MTEXT
  5
6B
330
17
100
AcDbEntity
  8
Nomi pareti
100
AcDbMText
 10
17.11
 20
30.79
 30
0.0
 40
0.2
 41
2.133
 46
0.0
 71
     5
 72
     5
  1
Parete 54
 11
-0.0000000000000002
 21
-1.0
 31
0.0
 73
     1
 44
1.0
1001
ACAD
1000
MTEXTBEGIN
1070
    73
1070
     1
1070
    44
1040
1.0
1070
    74
1070
     0
1000
MTEXTEND
  0
MTEXT
  5
6C
330
17
100
AcDbEntity
  8
Nomi pareti
100
AcDbMText
 10
20.725
 20
29.915
 30
0.0
 40
0.2
 41
6.974999999999999
 46
0.0
 71
     5
 72
     5
  1
Parete 55
 73
     1
 44
1.0
1001
ACAD
1000
MTEXTBEGIN
1070
    73
1070
     1
1070
    44
1040
1.0
1070
    74
1070
     0
1000
MTEXTEND
  0
MTEXT
  5
6D
330
17
100
AcDbEntity
  8
Nomi pareti
100
AcDbMText
 10
24.91
 20
19.625
 30
0.0
 40
0.2
 41
1.35
 46
0.0
 71
     5
 72
     5
  1
Parete 56
 11
-0.0000000000000002
 21
-1.0
 31
0.0
 73
     1
 44
1.0
1001
ACAD
1000
MTEXTBEGIN
1070
    73
1070
     1
1070
    44
1040
1.0
1070
    74
1070
     0
1000
MTEXTEND
  0
MTEXT
  5
6E
330
17
100
AcDbEntity
  8
Nomi pareti
100
AcDbMText
 10
24.91
 20
28.855
 30
0.0
 40
0.2
 41
1.35
 46
0.0
 71
     5
 72
     5
  1
Parete 58
 11
-0.0000000000000002
 21
-1.0
 31
0.0
 73
     1
 44
1.0
1001
ACAD
1000
MTEXTBEGIN
1070
    73
1070
     1
1070
    44
1040
1.0
1070
    74
1070
     0
1000
MTEXTEND
  0
MTEXT
  5
6F
330
17
100
AcDbEntity
  8
Nomi pareti
100
AcDbMText
 10
24.91
 20
24.24
 30
0.0
 40
0.2
 41
4.076999999999999
 46
0.0
 71
     5
 72
     5
  1
Parete 60
 11
-0.0000000000000002
 21
-1.0
 31
0.0
 73
     1
 44
1.0
1001
ACAD
1000
MTEXTBEGIN
1070
    73
1070
     1
1070
    44
1040
1.0
1070
    74
1070
     0
1000
MTEXTEND
  0
MTEXT
  5
70
330
17
100
AcDbEntity
  8
Nomi pareti
100
AcDbMText
 10
6.709999999999999
 20
25.075
 30
0.0
 40
0.2
 41
2.52
 46
0.0
 71
     5
 72
     5
  1
Parete 61
 11
-0.0000000000000002
 21
-1.0
 31
0.0
 73
     1
 44
1.0
1001
ACAD
1000
MTEXTBEGIN
1070
    73
1070
     1
1070
    44
1040
1.0
1070
    74
1070
     0
1000
MTEXTEND
  0
MTEXT
  5
71
330
17
100
AcDbEntity
  8
Nomi pareti
100
AcDbMText
 10
7.25
 20
22.985
 30
0.0
 40
0.2
 41
1.53
 46
0.0
 71
     5
 72
     5
  1
Parete 66
 73
     1
 44
1.0
1001
ACAD
1000
MTEXTBEGIN
1070
    73
1070
     1
1070
    44
1040
1.0
1070
    74
1070
     0
1000
MTEXTEND
  0
MTEXT
  5
72
330
17
100
AcDbEntity
  8
Nomi pareti
100
AcDbMText
 10
10.55
 20
22.985
 30
0.0
 40
0.2
 41
1.53
 46
0.0
 71
     5
 72
     5
  1
Parete 67
 73
     1
 44
1.0
1001
ACAD
1000
MTEXTBEGIN
1070
    73
1070
     1
1070
    44
1040
1.0
1070
    74
1070
     0
1000
MTEXTEND
  0
MTEXT
  5
73
330
17
100
AcDbEntity
  8
Nomi pareti
100
AcDbMText
 10
3.0
 20
28.135
 30
0.0
 40
0.2
 41
3.6
 46
0.0
 71
     5
 72
     5
  1
Parete 68
 73
     1
 44
1.0
1001
ACAD
1000
MTEXTBEGIN
1070
    73
1070
     1
1070
    44
1040
1.0
1070
    74
1070
     0
1000
MTEXTEND
  0
MTEXT
  5
74
330
17
100
AcDbEntity
  8
Nomi pareti
100
AcDbMText
 10
7.9
 20
28.135
 30
0.0
 40
0.2
 41
2.7
 46
0.0
 71
     5
 72
     5
  1
Parete 69
 73
     1
 44
1.0
1001
ACAD
1000
MTEXTBEGIN
1070
    73
1070
     1
1070
    44
1040
1.0
1070
    74
1070
     0
1000
MTEXTEND
  0
MTEXT
  5
75
330
17
100
AcDbEntity
  8
Nomi pareti
100
AcDbMText
 10
17.16
 20
27.605
 30
0.0
 40
0.2
 41
3.6
 46
0.0
 71
     5
 72
     5
  1
Parete 70
 11
-0.0000000000000002
 21
-1.0
 31
0.0
 73
     1
 44
1.0
1001
ACAD
1000
MTEXTBEGIN
1070
    73
1070
     1
1070
    44
1040
1.0
1070
    74
1070
     0
1000
MTEXTEND
  0
MTEXT
  5
76
330
17
100
AcDbEntity
  8
Nomi pareti
100
AcDbMText
 10
17.11
 20
23.9575
 30
0.0
 40
0.2
 41
0.5084999999999999
 46
0.0
 71
     5
 72
     5
  1
Parete 71
 11
-0.0000000000000002
 21
-1.0
 31
0.0
 73
     1
 44
1.0
1001
ACAD
1000
MTEXTBEGIN
1070
    73
1070
     1
1070
    44
1040
1.0
1070
    74
1070
     0
1000
MTEXTEND
  0
MTEXT
  5
77
330
17
100
AcDbEntity
  8
Nomi pareti
100
AcDbMText
 10
9.71
 20
29.9
 30
0.0
 40
0.2
 41
3.734999999999999
 46
0.0
 71
     5
 72
     5
  1
Parete 72
 11
-0.0000000000000002
 21
-1.0
 31
0.0
 73
     1
 44
1.0
1001
ACAD
1000
MTEXTBEGIN
1070
    73
1070
     1
1070
    44
1040
1.0
1070
    74
1070
     0
1000
MTEXTEND
  0
MTEXT
  5
78
330
17
100
AcDbEntity
  8
Nomi pareti
100
AcDbMText
 10
11.71
 20
25.675
 30
0.0
 40
0.2
 41
3.6
 46
0.0
 71
     5
 72
     5
  1
Parete 73
 11
-0.0000000000000002
 21
-1.0
 31
0.0
 73
     1
 44
1.0
1001
ACAD
1000
MTEXTBEGIN
1070
    73
1070
     1
1070
    44
1040
1.0
1070
    74
1070
     0
1000
MTEXTEND
  0
MTEXT
  5
79
330
17
100
AcDbEntity
  8
Nomi pareti
100
AcDbMText
 10
6.95
 20
32.285
 30
0.0
 40
0.2
 41
3.509999999999999
 46
0.0
 71
     5
 72
     5
  1
Parete 80
 73
     1
 44
1.0
1001
ACAD
1000
MTEXTBEGIN
1070
    73
1070
     1
1070
    44
1040
1.0
1070
    74
1070
     0
1000
MTEXTEND
  0
INSERT
  5
7B
330
17
100
AcDbEntity
  8
0
 62
     1
100
AcDbBlockReference
  2
HoldDown
 10
1.199999999999999
 20
23.675
 30
0.0
  0
INSERT
  5
84
330
17
100
AcDbEntity
  8
0
 62
     1
100
AcDbBlockReference
  2
HoldDown
 10
1.8
 20
23.675
 30
0.0
  0
TEXT
  5
85
330
17
100
AcDbEntity
  8
Connessioni a trazione
100
AcDbText
 10
1.188095238095238
 20
23.625
 30
0.0
 40
0.1
  1
1
 72
     1
 11
1.199999999999999
 21
23.675
 31
0.0
100
AcDbText
 73
     2
  0
TEXT
  5
86
330
17
100
AcDbEntity
  8
Connessioni a trazione
100
AcDbText
 10
1.788095238095238
 20
23.625
 30
0.0
 40
0.1
  1
1
 72
     1
 11
1.8
 21
23.675
 31
0.0
100
AcDbText
 73
     2
  0
INSERT
  5
88
330
17
100
AcDbEntity
  8
0
 62
     2
100
AcDbBlockReference
  2
AngleBracket
 10
1.5
 20
23.365
 30
0.0
  0
TEXT
  5
8E
330
17
100
AcDbEntity
  8
Connessioni a taglio
 62
     2
100
AcDbText
 10
1.466666666666666
 20
23.145
 30
0.0
 40
0.1
  1
2
 72
     1
 11
1.5
 21
23.245
 31
0.0
100
AcDbText
 73
     3
  0
INSERT
  5
90
330
17
100
AcDbEntity
  8
0
 62
     1
100
AcDbBlockReference
  2
HoldDown
 10
3.6
 20
23.675
 30
0.0
  0
INSERT
  5
92
330
17
100
AcDbEntity
  8
0
 62
     1
100
AcDbBlockReference
  2
HoldDown
 10
6.2
 20
23.675
 30
0.0
  0
TEXT
  5
93
330
17
100
AcDbEntity
  8
Connessioni a trazione
100
AcDbText
 10
3.588095238095238
 20
23.625
 30
0.0
 40
0.1
  1
1
 72
     1
 11
3.6
 21
23.675
 31
0.0
100
AcDbText
 73
     2
  0
TEXT
  5
94
330
17
100
AcDbEntity
  8
Connessioni a trazione
100
AcDbText
 10
6.188095238095238
 20
23.625
 30
0.0
 40
0.1
  1
1
 72
     1
 11
6.2
 21
23.675
 31
0.0
100
AcDbText
 73
     2
  0
INSERT
  5
96
330
17
100
AcDbEntity
  8
0
 62
     2
100
AcDbBlockReference
  2
AngleBracket
 10
4.9
 20
23.365
 30
0.0
  0
TEXT
  5
97
330
17
100
AcDbEntity
  8
Connessioni a taglio
 62
     2
100
AcDbText
 10
4.869047619047619
 20
23.145
 30
0.0
 40
0.1
  1
6
 72
     1
 11
4.9
 21
23.245
 31
0.0
100
AcDbText
 73
     3
  0
INSERT
  5
99
330
17
100
AcDbEntity
  8
0
 62
     1
100
AcDbBlockReference
  2
HoldDown
 10
6.4
 20
23.475
 30
0.0
 50
270.0
  0
INSERT
  5
9B
330
17
100
AcDbEntity
  8
0
 62
     1
100
AcDbBlockReference
  2
HoldDown
 10
6.4
 20
22.875
 30
0.0
 50
270.0
  0
TEXT
  5
9C
330
17
100
AcDbEntity
  8
Connessioni a trazione
100
AcDbText
 10
6.388095238095238
 20
23.425
 30
0.0
 40
0.1
  1
1
 72
     1
 11
6.4
 21
23.475
 31
0.0
100
AcDbText
 73
     2
  0
TEXT
  5
9D
330
17
100
AcDbEntity
  8
Connessioni a trazione
100
AcDbText
 10
6.388095238095238
 20
22.825
 30
0.0
 40
0.1
  1
1
 72
     1
 11
6.4
 21
22.875
 31
0.0
100
AcDbText
 73
     2
  0
INSERT
  5
9F
330
17
100
AcDbEntity
  8
0
 62
     2
100
AcDbBlockReference
  2
AngleBracket
 10
6.089999999999999
 20
23.175
 30
0.0
 50
270.0
  0
TEXT
  5
A0
330
17
100
AcDbEntity
  8
Connessioni a taglio
 62
     2
100
AcDbText
 10
5.87
 20
23.20833333333334
 30
0.0
 40
0.1
  1
2
 50
270.0
 72
     1
 11
5.969999999999999
 21
23.175
 31
0.0
100
AcDbText
 73
     3
  0
INSERT
  5
A2
330
17
100
AcDbEntity
  8
0
 62
     1
100
AcDbBlockReference
  2
HoldDown
 10
11.4
 20
23.475
 30
0.0
 50
270.0
  0
INSERT
  5
A4
330
17
100
AcDbEntity
  8
0
 62
     1
100
AcDbBlockReference
  2
HoldDown
 10
11.4
 20
22.875
 30
0.0
 50
270.0
  0
TEXT
  5
A5
330
17
100
AcDbEntity
  8
Connessioni a trazione
100
AcDbText
 10
11.38809523809523
 20
23.425
 30
0.0
 40
0.1
  1
1
 72
     1
 11
11.4
 21
23.475
 31
0.0
100
AcDbText
 73
     2
  0
TEXT
  5
A6
330
17
100
AcDbEntity
  8
Connessioni a trazione
100
AcDbText
 10
11.38809523809523
 20
22.825
 30
0.0
 40
0.1
  1
1
 72
     1
 11
11.4
 21
22.875
 31
0.0
100
AcDbText
 73
     2
  0
INSERT
  5
A8
330
17
100
AcDbEntity
  8
0
 62
     2
100
AcDbBlockReference
  2
AngleBracket
 10
11.09
 20
23.175
 30
0.0
 50
270.0
  0
TEXT
  5
A9
330
17
100
AcDbEntity
  8
Connessioni a taglio
 62
     2
100
AcDbText
 10
10.87
 20
23.20833333333334
 30
0.0
 40
0.1
  1
2
 50
270.0
 72
     1
 11
10.97
 21
23.175
 31
0.0
100
AcDbText
 73
     3
  0
INSERT
  5
AB
330
17
100
AcDbEntity
  8
0
 62
     1
100
AcDbBlockReference
  2
HoldDown
 10
16.4
 20
23.675
 30
0.0
  0
INSERT
  5
AD
330
17
100
AcDbEntity
  8
0
 62
     1
100
AcDbBlockReference
  2
HoldDown
 10
16.6
 20
23.675
 30
0.0
  0
TEXT
  5
AE
330
17
100
AcDbEntity
  8
Connessioni a trazione
100
AcDbText
 10
16.38809523809523
 20
23.625
 30
0.0
 40
0.1
  1
1
 72
     1
 11
16.4
 21
23.675
 31
0.0
100
AcDbText
 73
     2
  0
TEXT
  5
AF
330
17
100
AcDbEntity
  8
Connessioni a trazione
100
AcDbText
 10
16.58809523809524
 20
23.625
 30
0.0
 40
0.1
  1
1
 72
     1
 11
16.6
 21
23.675
 31
0.0
100
AcDbText
 73
     2
  0
INSERT
  5
B1
330
17
100
AcDbEntity
  8
0
 62
     2
100
AcDbBlockReference
  2
AngleBracket
 10
16.5
 20
23.365
 30
0.0
  0
TEXT
  5
B2
330
17
100
AcDbEntity
  8
Connessioni a taglio
 62
     2
100
AcDbText
 10
16.48809523809523
 20
23.145
 30
0.0
 40
0.1
  1
1
 72
     1
 11
16.5
 21
23.245
 31
0.0
100
AcDbText
 73
     3
  0
INSERT
  5
B4
330
17
100
AcDbEntity
  8
0
 62
     1
100
AcDbBlockReference
  2
HoldDown
 10
1.0
 20
23.875
 30
0.0
 50
90.0
  0
INSERT
  5
B6
330
17
100
AcDbEntity
  8
0
 62
     1
100
AcDbBlockReference
  2
HoldDown
 10
1.0
 20
24.975
 30
0.0
 50
90.0
  0
TEXT
  5
B7
330
17
100
AcDbEntity
  8
Connessioni a trazione
100
AcDbText
 10
0.9880952380952381
 20
23.825
 30
0.0
 40
0.1
  1
1
 72
     1
 11
1.0
 21
23.875
 31
0.0
100
AcDbText
 73
     2
  0
TEXT
  5
B8
330
17
100
AcDbEntity
  8
Connessioni a trazione
100
AcDbText
 10
0.9880952380952381
 20
24.925
 30
0.0
 40
0.1
  1
1
 72
     1
 11
1.0
 21
24.975
 31
0.0
100
AcDbText
 73
     2
  0
INSERT
  5
BA
330
17
100
AcDbEntity
  8
0
 62
     2
100
AcDbBlockReference
  2
AngleBracket
 10
0.69
 20
24.425
 30
0.0
 50
270.0
  0
TEXT
  5
BB
330
17
100
AcDbEntity
  8
Connessioni a taglio
 62
     2
100
AcDbText
 10
0.47
 20
24.45833333333334
 30
0.0
 40
0.1
  1
3
 50
270.0
 72
     1
 11
0.57
 21
24.425
 31
0.0
100
AcDbText
 73
     3
  0
INSERT
  5
BD
330
17
100
AcDbEntity
  8
0
 62
     1
100
AcDbBlockReference
  2
HoldDown
 10
1.0
 20
26.775
 30
0.0
 50
90.0
  0
INSERT
  5
BF
330
17
100
AcDbEntity
  8
0
 62
     1
100
AcDbBlockReference
  2
HoldDown
 10
1.0
 20
28.875
 30
0.0
 50
90.0
  0
TEXT
  5
C0
330
17
100
AcDbEntity
  8
Connessioni a trazione
100
AcDbText
 10
0.9880952380952381
 20
26.725
 30
0.0
 40
0.1
  1
1
 72
     1
 11
1.0
 21
26.775
 31
0.0
100
AcDbText
 73
     2
  0
TEXT
  5
C1
330
17
100
AcDbEntity
  8
Connessioni a trazione
100
AcDbText
 10
0.9880952380952381
 20
28.825
 30
0.0
 40
0.1
  1
1
 72
     1
 11
1.0
 21
28.875
 31
0.0
100
AcDbText
 73
     2
  0
INSERT
  5
C3
330
17
100
AcDbEntity
  8
0
 62
     2
100
AcDbBlockReference
  2
AngleBracket
 10
0.69
 20
27.825
 30
0.0
 50
270.0
  0
TEXT
  5
C4
330
17
100
AcDbEntity
  8
Connessioni a taglio
 62
     2
100
AcDbText
 10
0.47
 20
27.85833333333334
 30
0.0
 40
0.1
  1
5
 50
270.0
 72
     1
 11
0.57
 21
27.825
 31
0.0
100
AcDbText
 73
     3
  0
INSERT
  5
C6
330
17
100
AcDbEntity
  8
0
 62
     1
100
AcDbBlockReference
  2
HoldDown
 10
1.0
 20
30.675
 30
0.0
 50
90.0
  0
INSERT
  5
C8
330
17
100
AcDbEntity
  8
0
 62
     1
100
AcDbBlockReference
  2
HoldDown
 10
1.0
 20
31.775
 30
0.0
 50
90.0
  0
TEXT
  5
C9
330
17
100
AcDbEntity
  8
Connessioni a trazione
100
AcDbText
 10
0.9880952380952381
 20
30.625
 30
0.0
 40
0.1
  1
1
 72
     1
 11
1.0
 21
30.675
 31
0.0
100
AcDbText
 73
     2
  0
TEXT
  5
CA
330
17
100
AcDbEntity
  8
Connessioni a trazione
100
AcDbText
 10
0.9880952380952381
 20
31.725
 30
0.0
 40
0.1
  1
1
 72
     1
 11
1.0
 21
31.775
 31
0.0
100
AcDbText
 73
     2
  0
INSERT
  5
CC
330
17
100
AcDbEntity
  8
0
 62
     2
100
AcDbBlockReference
  2
AngleBracket
 10
0.69
 20
31.225
 30
0.0
 50
270.0
  0
TEXT
  5
CD
330
17
100
AcDbEntity
  8
Connessioni a taglio
 62
     2
100
AcDbText
 10
0.47
 20
31.25833333333334
 30
0.0
 40
0.1
  1
3
 50
270.0
 72
     1
 11
0.57
 21
31.225
 31
0.0
100
AcDbText
 73
     3
  0
INSERT
  5
CF
330
17
100
AcDbEntity
  8
0
 62
     1
100
AcDbBlockReference
  2
HoldDown
 10
11.6
 20
23.675
 30
0.0
  0
INSERT
  5
D1
330
17
100
AcDbEntity
  8
0
 62
     1
100
AcDbBlockReference
  2
HoldDown
 10
14.2
 20
23.675
 30
0.0
  0
TEXT
  5
D2
330
17
100
AcDbEntity
  8
Connessioni a trazione
100
AcDbText
 10
11.58809523809523
 20
23.625
 30
0.0
 40
0.1
  1
1
 72
     1
 11
11.6
 21
23.675
 31
0.0
100
AcDbText
 73
     2
  0
TEXT
  5
D3
330
17
100
AcDbEntity
  8
Connessioni a trazione
100
AcDbText
 10
14.18809523809524
 20
23.625
 30
0.0
 40
0.1
  1
1
 72
     1
 11
14.2
 21
23.675
 31
0.0
100
AcDbText
 73
     2
  0
INSERT
  5
D5
330
17
100
AcDbEntity
  8
0
 62
     2
100
AcDbBlockReference
  2
AngleBracket
 10
12.9
 20
23.365
 30
0.0
  0
TEXT
  5
D6
330
17
100
AcDbEntity
  8
Connessioni a taglio
 62
     2
100
AcDbText
 10
12.86904761904762
 20
23.145
 30
0.0
 40
0.1
  1
6
 72
     1
 11
12.9
 21
23.245
 31
0.0
100
AcDbText
 73
     3
  0
INSERT
  5
D8
330
17
100
AcDbEntity
  8
0
 62
     1
100
AcDbBlockReference
  2
HoldDown
 10
1.199999999999999
 20
31.975
 30
0.0
  0
INSERT
  5
DA
330
17
100
AcDbEntity
  8
0
 62
     1
100
AcDbBlockReference
  2
HoldDown
 10
3.2
 20
31.975
 30
0.0
  0
TEXT
  5
DB
330
17
100
AcDbEntity
  8
Connessioni a trazione
100
AcDbText
 10
1.188095238095238
 20
31.925
 30
0.0
 40
0.1
  1
1
 72
     1
 11
1.199999999999999
 21
31.975
 31
0.0
100
AcDbText
 73
     2
  0
TEXT
  5
DC
330
17
100
AcDbEntity
  8
Connessioni a trazione
100
AcDbText
 10
3.188095238095238
 20
31.925
 30
0.0
 40
0.1
  1
1
 72
     1
 11
3.2
 21
31.975
 31
0.0
100
AcDbText
 73
     2
  0
INSERT
  5
DE
330
17
100
AcDbEntity
  8
0
 62
     2
100
AcDbBlockReference
  2
AngleBracket
 10
2.2
 20
31.665
 30
0.0
  0
TEXT
  5
DF
330
17
100
AcDbEntity
  8
Connessioni a taglio
 62
     2
100
AcDbText
 10
2.164285714285714
 20
31.445
 30
0.0
 40
0.1
  1
4
 72
     1
 11
2.2
 21
31.545
 31
0.0
100
AcDbText
 73
     3
  0
INSERT
  5
E1
330
17
100
AcDbEntity
  8
0
 62
     1
100
AcDbBlockReference
  2
HoldDown
 10
12.6
 20
31.975
 30
0.0
  0
INSERT
  5
E3
330
17
100
AcDbEntity
  8
0
 62
     1
100
AcDbBlockReference
  2
HoldDown
 10
9.099999999999999
 20
31.975
 30
0.0
  0
TEXT
  5
E4
330
17
100
AcDbEntity
  8
Connessioni a trazione
100
AcDbText
 10
12.58809523809524
 20
31.925
 30
0.0
 40
0.1
  1
1
 72
     1
 11
12.6
 21
31.975
 31
0.0
100
AcDbText
 73
     2
  0
TEXT
  5
E5
330
17
100
AcDbEntity
  8
Connessioni a trazione
100
AcDbText
 10
9.088095238095236
 20
31.925
 30
0.0
 40
0.1
  1
1
 72
     1
 11
9.099999999999999
 21
31.975
 31
0.0
100
AcDbText
 73
     2
  0
INSERT
  5
E7
330
17
100
AcDbEntity
  8
0
 62
     2
100
AcDbBlockReference
  2
AngleBracket
 10
10.85
 20
31.665
 30
0.0
  0
TEXT
  5
E8
330
17
100
AcDbEntity
  8
Connessioni a taglio
 62
     2
100
AcDbText
 10
10.81666666666666
 20
31.445
 30
0.0
 40
0.1
  1
7
 72
     1
 11
10.85
 21
31.545
 31
0.0
100
AcDbText
 73
     3
  0
INSERT
  5
EA
330
17
100
AcDbEntity
  8
0
 62
     1
100
AcDbBlockReference
  2
HoldDown
 10
14.6
 20
31.975
 30
0.0
  0
INSERT
  5
EC
330
17
100
AcDbEntity
  8
0
 62
     1
100
AcDbBlockReference
  2
HoldDown
 10
16.6
 20
31.975
 30
0.0
  0
TEXT
  5
ED
330
17
100
AcDbEntity
  8
Connessioni a trazione
100
AcDbText
 10
14.58809523809524
 20
31.925
 30
0.0
 40
0.1
  1
1
 72
     1
 11
14.6
 21
31.975
 31
0.0
100
AcDbText
 73
     2
  0
TEXT
  5
EE
330
17
100
AcDbEntity
  8
Connessioni a trazione
100
AcDbText
 10
16.58809523809524
 20
31.925
 30
0.0
 40
0.1
  1
1
 72
     1
 11
16.6
 21
31.975
 31
0.0
100
AcDbText
 73
     2
  0
INSERT
  5
F0
330
17
100
AcDbEntity
  8
0
 62
     2
100
AcDbBlockReference
  2
AngleBracket
 10
15.6
 20
31.665
 30
0.0
  0
TEXT
  5
F1
330
17
100
AcDbEntity
  8
Connessioni a taglio
 62
     2
100
AcDbText
 10
15.56428571428571
 20
31.445
 30
0.0
 40
0.1
  1
4
 72
     1
 11
15.6
 21
31.545
 31
0.0
100
AcDbText
 73
     3
  0
INSERT
  5
F3
330
17
100
AcDbEntity
  8
0
 62
     1
100
AcDbBlockReference
  2
HoldDown
 10
17.05
 20
18.875
 30
0.0
  0
INSERT
  5
F5
330
17
100
AcDbEntity
  8
0
 62
     1
100
AcDbBlockReference
  2
HoldDown
 10
17.6
 20
18.875
 30
0.0
  0
TEXT
  5
F6
330
17
100
AcDbEntity
  8
Connessioni a trazione
100
AcDbText
 10
17.03809523809524
 20
18.825
 30
0.0
 40
0.1
  1
1
 72
     1
 11
17.05
 21
18.875
 31
0.0
100
AcDbText
 73
     2
  0
TEXT
  5
F7
330
17
100
AcDbEntity
  8
Connessioni a trazione
100
AcDbText
 10
17.58809523809524
 20
18.825
 30
0.0
 40
0.1
  1
1
 72
     1
 11
17.6
 21
18.875
 31
0.0
100
AcDbText
 73
     2
  0
INSERT
  5
F9
330
17
100
AcDbEntity
  8
0
 62
     2
100
AcDbBlockReference
  2
AngleBracket
 10
17.325
 20
18.565
 30
0.0
  0
TEXT
  5
FA
330
17
100
AcDbEntity
  8
Connessioni a taglio
 62
     2
100
AcDbText
 10
17.31309523809524
 20
18.345
 30
0.0
 40
0.1
  1
1
 72
     1
 11
17.325
 21
18.445
 31
0.0
100
AcDbText
 73
     3
  0
INSERT
  5
FC
330
17
100
AcDbEntity
  8
0
 62
     1
100
AcDbBlockReference
  2
HoldDown
 10
19.4
 20
18.875
 30
0.0
  0
INSERT
  5
FE
330
17
100
AcDbEntity
  8
0
 62
     1
100
AcDbBlockReference
  2
HoldDown
 10
22.0
 20
18.875
 30
0.0
  0
TEXT
  5
FF
330
17
100
AcDbEntity
  8
Connessioni a trazione
100
AcDbText
 10
19.38809523809523
 20
18.825
 30
0.0
 40
0.1
  1
1
 72
     1
 11
19.4
 21
18.875
 31
0.0
100
AcDbText
 73
     2
  0
TEXT
  5
100
330
17
100
AcDbEntity
  8
Connessioni a trazione
100
AcDbText
 10
21.98809523809524
 20
18.825
 30
0.0
 40
0.1
  1
1
 72
     1
 11
22.0
 21
18.875
 31
0.0
100
AcDbText
 73
     2
  0
INSERT
  5
102
330
17
100
AcDbEntity
  8
0
 62
     2
100
AcDbBlockReference
  2
AngleBracket
 10
20.7
 20
18.565
 30
0.0
  0
TEXT
  5
103
330
17
100
AcDbEntity
  8
Connessioni a taglio
 62
     2
100
AcDbText
 10
20.66904761904762
 20
18.345
 30
0.0
 40
0.1
  1
6
 72
     1
 11
20.7
 21
18.445
 31
0.0
100
AcDbText
 73
     3
  0
INSERT
  5
105
330
17
100
AcDbEntity
  8
0
 62
     1
100
AcDbBlockReference
  2
HoldDown
 10
23.8
 20
18.875
 30
0.0
  0
INSERT
  5
107
330
17
100
AcDbEntity
  8
0
 62
     1
100
AcDbBlockReference
  2
HoldDown
 10
24.4
 20
18.875
 30
0.0
  0
TEXT
  5
108
330
17
100
AcDbEntity
  8
Connessioni a trazione
100
AcDbText
 10
23.78809523809524
 20
18.825
 30
0.0
 40
0.1
  1
1
 72
     1
 11
23.8
 21
18.875
 31
0.0
100
AcDbText
 73
     2
  0
TEXT
  5
109
330
17
100
AcDbEntity
  8
Connessioni a trazione
100
AcDbText
 10
24.38809523809524
 20
18.825
 30
0.0
 40
0.1
  1
1
 72
     1
 11
24.4
 21
18.875
 31
0.0
100
AcDbText
 73
     2
  0
INSERT
  5
10B
330
17
100
AcDbEntity
  8
0
 62
     2
100
AcDbBlockReference
  2
AngleBracket
 10
24.1
 20
18.565
 30
0.0
  0
TEXT
  5
10C
330
17
100
AcDbEntity
  8
Connessioni a taglio
 62
     2
100
AcDbText
 10
24.06666666666667
 20
18.345
 30
0.0
 40
0.1
  1
2
 72
     1
 11
24.1
 21
18.445
 31
0.0
100
AcDbText
 73
     3
  0
INSERT
  5
10E
330
17
100
AcDbEntity
  8
0
 62
     1
100
AcDbBlockReference
  2
HoldDown
 10
16.8
 20
31.775
 30
0.0
 50
270.0
  0
INSERT
  5
110
330
17
100
AcDbEntity
  8
0
 62
     1
100
AcDbBlockReference
  2
HoldDown
 10
16.8
 20
29.805
 30
0.0
 50
270.0
  0
TEXT
  5
111
330
17
100
AcDbEntity
  8
Connessioni a trazione
100
AcDbText
 10
16.78809523809524
 20
31.725
 30
0.0
 40
0.1
  1
1
 72
     1
 11
16.8
 21
31.775
 31
0.0
100
AcDbText
 73
     2
  0
TEXT
  5
112
330
17
100
AcDbEntity
  8
Connessioni a trazione
100
AcDbText
 10
16.78809523809524
 20
29.755
 30
0.0
 40
0.1
  1
1
 72
     1
 11
16.8
 21
29.805
 31
0.0
100
AcDbText
 73
     2
  0
INSERT
  5
114
330
17
100
AcDbEntity
  8
0
 62
     2
100
AcDbBlockReference
  2
AngleBracket
 10
16.49
 20
30.79
 30
0.0
 50
270.0
  0
TEXT
  5
115
330
17
100
AcDbEntity
  8
Connessioni a taglio
 62
     2
100
AcDbText
 10
16.27
 20
30.82571428571429
 30
0.0
 40
0.1
  1
4
 50
270.0
 72
     1
 11
16.37
 21
30.79
 31
0.0
100
AcDbText
 73
     3
  0
INSERT
  5
117
330
17
100
AcDbEntity
  8
0
 62
     1
100
AcDbBlockReference
  2
HoldDown
 10
17.05
 20
29.605
 30
0.0
  0
INSERT
  5
119
330
17
100
AcDbEntity
  8
0
 62
     1
100
AcDbBlockReference
  2
HoldDown
 10
24.4
 20
29.605
 30
0.0
  0
TEXT
  5
11A
330
17
100
AcDbEntity
  8
Connessioni a trazione
100
AcDbText
 10
17.03809523809524
 20
29.555
 30
0.0
 40
0.1
  1
1
 72
     1
 11
17.05
 21
29.605
 31
0.0
100
AcDbText
 73
     2
  0
TEXT
  5
11B
330
17
100
AcDbEntity
  8
Connessioni a trazione
100
AcDbText
 10
24.38809523809524
 20
29.555
 30
0.0
 40
0.1
  1
1
 72
     1
 11
24.4
 21
29.605
 31
0.0
100
AcDbText
 73
     2
  0
INSERT
  5
11D
330
17
100
AcDbEntity
  8
0
 62
     2
100
AcDbBlockReference
  2
AngleBracket
 10
20.725
 20
29.295
 30
0.0
  0
TEXT
  5
11E
330
17
100
AcDbEntity
  8
Connessioni a taglio
 62
     2
100
AcDbText
 10
20.65357142857143
 20
29.075
 30
0.0
 40
0.1
  1
15
 72
     1
 11
20.725
 21
29.175
 31
0.0
100
AcDbText
 73
     3
  0
INSERT
  5
120
330
17
100
AcDbEntity
  8
0
 62
     1
100
AcDbBlockReference
  2
HoldDown
 10
24.6
 20
19.075
 30
0.0
 50
90.0
  0
INSERT
  5
122
330
17
100
AcDbEntity
  8
0
 62
     1
100
AcDbBlockReference
  2
HoldDown
 10
24.6
 20
20.175
 30
0.0
 50
90.0
  0
TEXT
  5
123
330
17
100
AcDbEntity
  8
Connessioni a trazione
100
AcDbText
 10
24.58809523809524
 20
19.025
 30
0.0
 40
0.1
  1
1
 72
     1
 11
24.6
 21
19.075
 31
0.0
100
AcDbText
 73
     2
  0
TEXT
  5
124
330
17
100
AcDbEntity
  8
Connessioni a trazione
100
AcDbText
 10
24.58809523809524
 20
20.125
 30
0.0
 40
0.1
  1
1
 72
     1
 11
24.6
 21
20.175
 31
0.0
100
AcDbText
 73
     2
  0
INSERT
  5
126
330
17
100
AcDbEntity
  8
0
 62
     2
100
AcDbBlockReference
  2
AngleBracket
 10
24.29
 20
19.625
 30
0.0
 50
270.0
  0
TEXT
  5
127
330
17
100
AcDbEntity
  8
Connessioni a taglio
 62
     2
100
AcDbText
 10
24.07
 20
19.65833333333333
 30
0.0
 40
0.1
  1
3
 50
270.0
 72
     1
 11
24.17
 21
19.625
 31
0.0
100
AcDbText
 73
     3
  0
INSERT
  5
129
330
17
100
AcDbEntity
  8
0
 62
     1
100
AcDbBlockReference
  2
HoldDown
 10
24.6
 20
28.305
 30
0.0
 50
90.0
  0
INSERT
  5
12B
330
17
100
AcDbEntity
  8
0
 62
     1
100
AcDbBlockReference
  2
HoldDown
 10
24.6
 20
29.405
 30
0.0
 50
90.0
  0
TEXT
  5
12C
330
17
100
AcDbEntity
  8
Connessioni a trazione
100
AcDbText
 10
24.58809523809524
 20
28.255
 30
0.0
 40
0.1
  1
1
 72
     1
 11
24.6
 21
28.305
 31
0.0
100
AcDbText
 73
     2
  0
TEXT
  5
12D
330
17
100
AcDbEntity
  8
Connessioni a trazione
100
AcDbText
 10
24.58809523809524
 20
29.355
 30
0.0
 40
0.1
  1
1
 72
     1
 11
24.6
 21
29.405
 31
0.0
100
AcDbText
 73
     2
  0
INSERT
  5
12F
330
17
100
AcDbEntity
  8
0
 62
     2
100
AcDbBlockReference
  2
AngleBracket
 10
24.29
 20
28.855
 30
0.0
 50
270.0
  0
TEXT
  5
130
330
17
100
AcDbEntity
  8
Connessioni a taglio
 62
     2
100
AcDbText
 10
24.07
 20
28.88833333333334
 30
0.0
 40
0.1
  1
3
 50
270.0
 72
     1
 11
24.17
 21
28.855
 31
0.0
100
AcDbText
 73
     3
  0
INSERT
  5
132
330
17
100
AcDbEntity
  8
0
 62
     1
100
AcDbBlockReference
  2
HoldDown
 10
24.6
 20
22.175
 30
0.0
 50
90.0
  0
INSERT
  5
134
330
17
100
AcDbEntity
  8
0
 62
     1
100
AcDbBlockReference
  2
HoldDown
 10
24.6
 20
26.305
 30
0.0
 50
90.0
  0
TEXT
  5
135
330
17
100
AcDbEntity
  8
Connessioni a trazione
100
AcDbText
 10
24.58809523809524
 20
22.125
 30
0.0
 40
0.1
  1
1
 72
     1
 11
24.6
 21
22.175
 31
0.0
100
AcDbText
 73
     2
  0
TEXT
  5
136
330
17
100
AcDbEntity
  8
Connessioni a trazione
100
AcDbText
 10
24.58809523809524
 20
26.255
 30
0.0
 40
0.1
  1
1
 72
     1
 11
24.6
 21
26.305
 31
0.0
100
AcDbText
 73
     2
  0
INSERT
  5
138
330
17
100
AcDbEntity
  8
0
 62
     2
100
AcDbBlockReference
  2
AngleBracket
 10
24.29
 20
24.24
 30
0.0
 50
270.0
  0
TEXT
  5
139
330
17
100
AcDbEntity
  8
Connessioni a taglio
 62
     2
100
AcDbText
 10
24.07
 20
24.27095238095238
 30
0.0
 40
0.1
  1
9
 50
270.0
 72
     1
 11
24.17
 21
24.24
 31
0.0
100
AcDbText
 73
     3
  0
INSERT
  5
13B
330
17
100
AcDbEntity
  8
0
 62
     3
100
AcDbBlockReference
  2
HoldDown
 10
6.4
 20
23.875
 30
0.0
 50
90.0
  0
INSERT
  5
13D
330
17
100
AcDbEntity
  8
0
 62
     3
100
AcDbBlockReference
  2
HoldDown
 10
6.4
 20
26.275
 30
0.0
 50
90.0
  0
TEXT
  5
13E
330
17
100
AcDbEntity
  8
Connessioni a trazione
100
AcDbText
 10
6.388095238095238
 20
23.825
 30
0.0
 40
0.1
  1
1
 72
     1
 11
6.4
 21
23.875
 31
0.0
100
AcDbText
 73
     2
  0
TEXT
  5
13F
330
17
100
AcDbEntity
  8
Connessioni a trazione
100
AcDbText
 10
6.388095238095238
 20
26.225
 30
0.0
 40
0.1
  1
1
 72
     1
 11
6.4
 21
26.275
 31
0.0
100
AcDbText
 73
     2
  0
INSERT
  5
141
330
17
100
AcDbEntity
  8
0
 62
     2
100
AcDbBlockReference
  2
AngleBracket
 10
6.089999999999999
 20
25.075
 30
0.0
 50
270.0
  0
TEXT
  5
142
330
17
100
AcDbEntity
  8
Connessioni a taglio
 62
     2
100
AcDbText
 10
5.87
 20
25.10833333333334
 30
0.0
 40
0.1
  1
5
 50
270.0
 72
     1
 11
5.969999999999999
 21
25.075
 31
0.0
100
AcDbText
 73
     3
  0
INSERT
  5
144
330
17
100
AcDbEntity
  8
0
 62
     1
100
AcDbBlockReference
  2
HoldDown
 10
6.599999999999999
 20
22.675
 30
0.0
  0
INSERT
  5
146
330
17
100
AcDbEntity
  8
0
 62
     1
100
AcDbBlockReference
  2
HoldDown
 10
7.9
 20
22.675
 30
0.0
  0
TEXT
  5
147
330
17
100
AcDbEntity
  8
Connessioni a trazione
100
AcDbText
 10
6.588095238095237
 20
22.625
 30
0.0
 40
0.1
  1
1
 72
     1
 11
6.599999999999999
 21
22.675
 31
0.0
100
AcDbText
 73
     2
  0
TEXT
  5
148
330
17
100
AcDbEntity
  8
Connessioni a trazione
100
AcDbText
 10
7.888095238095238
 20
22.625
 30
0.0
 40
0.1
  1
1
 72
     1
 11
7.9
 21
22.675
 31
0.0
100
AcDbText
 73
     2
  0
INSERT
  5
14A
330
17
100
AcDbEntity
  8
0
 62
     2
100
AcDbBlockReference
  2
AngleBracket
 10
7.25
 20
22.365
 30
0.0
  0
TEXT
  5
14B
330
17
100
AcDbEntity
  8
Connessioni a taglio
 62
     2
100
AcDbText
 10
7.216666666666666
 20
22.145
 30
0.0
 40
0.1
  1
3
 72
     1
 11
7.25
 21
22.245
 31
0.0
100
AcDbText
 73
     3
  0
INSERT
  5
14D
330
17
100
AcDbEntity
  8
0
 62
     1
100
AcDbBlockReference
  2
HoldDown
 10
9.9
 20
22.675
 30
0.0
  0
INSERT
  5
14F
330
17
100
AcDbEntity
  8
0
 62
     1
100
AcDbBlockReference
  2
HoldDown
 10
11.2
 20
22.675
 30
0.0
  0
TEXT
  5
150
330
17
100
AcDbEntity
  8
Connessioni a trazione
100
AcDbText
 10
9.888095238095237
 20
22.625
 30
0.0
 40
0.1
  1
1
 72
     1
 11
9.9
 21
22.675
 31
0.0
100
AcDbText
 73
     2
  0
TEXT
  5
151
330
17
100
AcDbEntity
  8
Connessioni a trazione
100
AcDbText
 10
11.18809523809523
 20
22.625
 30
0.0
 40
0.1
  1
1
 72
     1
 11
11.2
 21
22.675
 31
0.0
100
AcDbText
 73
     2
  0
INSERT
  5
153
330
17
100
AcDbEntity
  8
0
 62
     2
100
AcDbBlockReference
  2
AngleBracket
 10
10.55
 20
22.365
 30
0.0
  0
TEXT
  5
154
330
17
100
AcDbEntity
  8
Connessioni a taglio
 62
     2
100
AcDbText
 10
10.51666666666666
 20
22.145
 30
0.0
 40
0.1
  1
3
 72
     1
 11
10.55
 21
22.245
 31
0.0
100
AcDbText
 73
     3
  0
INSERT
  5
156
330
17
100
AcDbEntity
  8
0
 62
     1
100
AcDbBlockReference
  2
HoldDown
 10
1.199999999999999
 20
27.825
 30
0.0
  0
INSERT
  5
158
330
17
100
AcDbEntity
  8
0
 62
     1
100
AcDbBlockReference
  2
HoldDown
 10
4.799999999999999
 20
27.825
 30
0.0
  0
TEXT
  5
159
330
17
100
AcDbEntity
  8
Connessioni a trazione
100
AcDbText
 10
1.188095238095238
 20
27.775
 30
0.0
 40
0.1
  1
1
 72
     1
 11
1.199999999999999
 21
27.825
 31
0.0
100
AcDbText
 73
     2
  0
TEXT
  5
15A
330
17
100
AcDbEntity
  8
Connessioni a trazione
100
AcDbText
 10
4.788095238095237
 20
27.775
 30
0.0
 40
0.1
  1
1
 72
     1
 11
4.799999999999999
 21
27.825
 31
0.0
100
AcDbText
 73
     2
  0
INSERT
  5
15C
330
17
100
AcDbEntity
  8
0
 62
     2
100
AcDbBlockReference
  2
AngleBracket
 10
3.0
 20
27.515
 30
0.0
  0
TEXT
  5
15D
330
17
100
AcDbEntity
  8
Connessioni a taglio
 62
     2
100
AcDbText
 10
2.966666666666666
 20
27.295
 30
0.0
 40
0.1
  1
8
 72
     1
 11
3.0
 21
27.395
 31
0.0
100
AcDbText
 73
     3
  0
INSERT
  5
15F
330
17
100
AcDbEntity
  8
0
 62
     1
100
AcDbBlockReference
  2
HoldDown
 10
6.599999999999999
 20
27.825
 30
0.0
  0
INSERT
  5
161
330
17
100
AcDbEntity
  8
0
 62
     1
100
AcDbBlockReference
  2
HoldDown
 10
9.199999999999999
 20
27.825
 30
0.0
  0
TEXT
  5
162
330
17
100
AcDbEntity
  8
Connessioni a trazione
100
AcDbText
 10
6.588095238095237
 20
27.775
 30
0.0
 40
0.1
  1
1
 72
     1
 11
6.599999999999999
 21
27.825
 31
0.0
100
AcDbText
 73
     2
  0
TEXT
  5
163
330
17
100
AcDbEntity
  8
Connessioni a trazione
100
AcDbText
 10
9.188095238095236
 20
27.775
 30
0.0
 40
0.1
  1
1
 72
     1
 11
9.199999999999999
 21
27.825
 31
0.0
100
AcDbText
 73
     2
  0
INSERT
  5
165
330
17
100
AcDbEntity
  8
0
 62
     2
100
AcDbBlockReference
  2
AngleBracket
 10
7.9
 20
27.515
 30
0.0
  0
TEXT
  5
166
330
17
100
AcDbEntity
  8
Connessioni a taglio
 62
     2
100
AcDbText
 10
7.869047619047619
 20
27.295
 30
0.0
 40
0.1
  1
6
 72
     1
 11
7.9
 21
27.395
 31
0.0
100
AcDbText
 73
     3
  0
INSERT
  5
168
330
17
100
AcDbEntity
  8
0
 62
     3
100
AcDbBlockReference
  2
HoldDown
 10
16.85
 20
29.405
 30
0.0
 50
270.0
  0
INSERT
  5
16A
330
17
100
AcDbEntity
  8
0
 62
     3
100
AcDbBlockReference
  2
HoldDown
 10
16.85
 20
25.805
 30
0.0
 50
270.0
  0
TEXT
  5
16B
330
17
100
AcDbEntity
  8
Connessioni a trazione
100
AcDbText
 10
16.83809523809524
 20
29.355
 30
0.0
 40
0.1
  1
1
 72
     1
 11
16.85
 21
29.405
 31
0.0
100
AcDbText
 73
     2
  0
TEXT
  5
16C
330
17
100
AcDbEntity
  8
Connessioni a trazione
100
AcDbText
 10
16.83809523809524
 20
25.755
 30
0.0
 40
0.1
  1
1
 72
     1
 11
16.85
 21
25.805
 31
0.0
100
AcDbText
 73
     2
  0
INSERT
  5
16E
330
17
100
AcDbEntity
  8
0
 62
     2
100
AcDbBlockReference
  2
AngleBracket
 10
16.54
 20
27.605
 30
0.0
 50
270.0
  0
TEXT
  5
16F
330
17
100
AcDbEntity
  8
Connessioni a taglio
 62
     2
100
AcDbText
 10
16.32
 20
27.63833333333334
 30
0.0
 40
0.1
  1
8
 50
270.0
 72
     1
 11
16.42
 21
27.605
 31
0.0
100
AcDbText
 73
     3
  0
INSERT
  5
171
330
17
100
AcDbEntity
  8
0
 62
     1
100
AcDbBlockReference
  2
HoldDown
 10
16.8
 20
24.04
 30
0.0
 50
270.0
  0
INSERT
  5
173
330
17
100
AcDbEntity
  8
0
 62
     1
100
AcDbBlockReference
  2
HoldDown
 10
16.8
 20
23.875
 30
0.0
 50
270.0
  0
TEXT
  5
174
330
17
100
AcDbEntity
  8
Connessioni a trazione
100
AcDbText
 10
16.78809523809524
 20
23.99
 30
0.0
 40
0.1
  1
1
 72
     1
 11
16.8
 21
24.04
 31
0.0
100
AcDbText
 73
     2
  0
TEXT
  5
175
330
17
100
AcDbEntity
  8
Connessioni a trazione
100
AcDbText
 10
16.78809523809524
 20
23.825
 30
0.0
 40
0.1
  1
1
 72
     1
 11
16.8
 21
23.875
 31
0.0
100
AcDbText
 73
     2
  0
INSERT
  5
177
330
17
100
AcDbEntity
  8
0
 62
     2
100
AcDbBlockReference
  2
AngleBracket
 10
16.49
 20
23.9575
 30
0.0
 50
270.0
  0
TEXT
  5
178
330
17
100
AcDbEntity
  8
Connessioni a taglio
 62
     2
100
AcDbText
 10
16.27
 20
23.96940476190476
 30
0.0
 40
0.1
  1
1
 50
270.0
 72
     1
 11
16.37
 21
23.9575
 31
0.0
100
AcDbText
 73
     3
  0
INSERT
  5
17A
330
17
100
AcDbEntity
  8
0
 62
     1
100
AcDbBlockReference
  2
HoldDown
 10
9.4
 20
28.025
 30
0.0
 50
90.0
  0
INSERT
  5
17C
330
17
100
AcDbEntity
  8
0
 62
     1
100
AcDbBlockReference
  2
HoldDown
 10
9.4
 20
31.775
 30
0.0
 50
90.0
  0
TEXT
  5
17D
330
17
100
AcDbEntity
  8
Connessioni a trazione
100
AcDbText
 10
9.388095238095237
 20
27.975
 30
0.0
 40
0.1
  1
1
 72
     1
 11
9.4
 21
28.025
 31
0.0
100
AcDbText
 73
     2
  0
TEXT
  5
17E
330
17
100
AcDbEntity
  8
Connessioni a trazione
100
AcDbText
 10
9.388095238095237
 20
31.725
 30
0.0
 40
0.1
  1
1
 72
     1
 11
9.4
 21
31.775
 31
0.0
100
AcDbText
 73
     2
  0
INSERT
  5
180
330
17
100
AcDbEntity
  8
0
 62
     2
100
AcDbBlockReference
  2
AngleBracket
 10
9.089999999999999
 20
29.9
 30
0.0
 50
270.0
  0
TEXT
  5
181
330
17
100
AcDbEntity
  8
Connessioni a taglio
 62
     2
100
AcDbText
 10
8.87
 20
29.93333333333334
 30
0.0
 40
0.1
  1
8
 50
270.0
 72
     1
 11
8.97
 21
29.9
 31
0.0
100
AcDbText
 73
     3
  0
INSERT
  5
183
330
17
100
AcDbEntity
  8
0
 62
     1
100
AcDbBlockReference
  2
HoldDown
 10
11.4
 20
23.875
 30
0.0
 50
90.0
  0
INSERT
  5
185
330
17
100
AcDbEntity
  8
0
 62
     1
100
AcDbBlockReference
  2
HoldDown
 10
11.4
 20
27.475
 30
0.0
 50
90.0
  0
TEXT
  5
186
330
17
100
AcDbEntity
  8
Connessioni a trazione
100
AcDbText
 10
11.38809523809523
 20
23.825
 30
0.0
 40
0.1
  1
1
 72
     1
 11
11.4
 21
23.875
 31
0.0
100
AcDbText
 73
     2
  0
TEXT
  5
187
330
17
100
AcDbEntity
  8
Connessioni a trazione
100
AcDbText
 10
11.38809523809523
 20
27.425
 30
0.0
 40
0.1
  1
1
 72
     1
 11
11.4
 21
27.475
 31
0.0
100
AcDbText
 73
     2
  0
INSERT
  5
189
330
17
100
AcDbEntity
  8
0
 62
     2
100
AcDbBlockReference
  2
AngleBracket
 10
11.09
 20
25.675
 30
0.0
 50
270.0
  0
TEXT
  5
18A
330
17
100
AcDbEntity
  8
Connessioni a taglio
 62
     2
100
AcDbText
 10
10.87
 20
25.70833333333334
 30
0.0
 40
0.1
  1
8
 50
270.0
 72
     1
 11
10.97
 21
25.675
 31
0.0
100
AcDbText
 73
     3
  0
INSERT
  5
18C
330
17
100
AcDbEntity
  8
0
 62
     1
100
AcDbBlockReference
  2
HoldDown
 10
5.2
 20
31.975
 30
0.0
  0
INSERT
  5
18E
330
17
100
AcDbEntity
  8
0
 62
     1
100
AcDbBlockReference
  2
HoldDown
 10
8.699999999999999
 20
31.975
 30
0.0
  0
TEXT
  5
18F
330
17
100
AcDbEntity
  8
Connessioni a trazione
100
AcDbText
 10
5.188095238095238
 20
31.925
 30
0.0
 40
0.1
  1
1
 72
     1
 11
5.2
 21
31.975
 31
0.0
100
AcDbText
 73
     2
  0
TEXT
  5
190
330
17
100
AcDbEntity
  8
Connessioni a trazione
100
AcDbText
 10
8.688095238095236
 20
31.925
 30
0.0
 40
0.1
  1
1
 72
     1
 11
8.699999999999999
 21
31.975
 31
0.0
100
AcDbText
 73
     2
  0
INSERT
  5
192
330
17
100
AcDbEntity
  8
0
 62
     2
100
AcDbBlockReference
  2
AngleBracket
 10
6.95
 20
31.665
 30
0.0
  0
TEXT
  5
193
330
17
100
AcDbEntity
  8
Connessioni a taglio
 62
     2
100
AcDbText
 10
6.916666666666666
 20
31.445
 30
0.0
 40
0.1
  1
7
 72
     1
 11
6.95
 21
31.545
 31
0.0
100
AcDbText
 73
     3
  0
LWPOLYLINE
  5
194
330
17
100
AcDbEntity
  8
0
100
AcDbPolyline
 90
        4
 70
     1
 43
0.0
 10
-1.0
 20
-1.0
 10
26.6
 20
-1.0
 10
26.6
 20
15.948
 10
-1.0
 20
15.948
  0
TEXT
  5
195
330
17
100
AcDbEntity
  8
0
100
AcDbText
 10
-0.9
 20
-0.9
 30
0.0
 40
0.2
  1
Piano 1 (altezza h: 3.34 m)
100
AcDbText
  0
HATCH
  5
196
330
17
100
AcDbEntity
  8
0
 62
     9
100
AcDbHatch
 10
0.0
 20
0.0
 30
0.0
210
0.0
220
0.0
230
1.0
  2
LINE45
 70
     0
 71
     0
 91
        1
 92
        7
 72
     0
 73
     1
 93
        4
 10
1.0
 20
5.777
 10
1.0
 20
5.677
 10
1.509999999999999
 20
5.677
 10
1.509999999999999
 20
5.777
 97
        0
 75
     0
 76
     1
 52
0.0
 41
1.0
 77
     0
 78
     1
 53
45.0
 43
0.0
 44
0.0
 45
-0.0883883476483184
 46
0.0883883476483184
 79
     0
 47
0.0
 98
        1
 10
0.0
 20
0.0
1001
ACAD
1010
0.0
1020
0.0
1030
0.0
  0
LWPOLYLINE
  5
197
330
17
100
AcDbEntity
  8
0
100
AcDbPolyline
 90
        4
 70
     1
 43
0.0
 10
1.0
 20
5.777
 10
1.0
 20
5.677
 10
1.509999999999999
 20
5.677
 10
1.509999999999999
 20
5.777
  0
HATCH
  5
198
330
17
100
AcDbEntity
  8
0
 62
     9
100
AcDbHatch
 10
0.0
 20
0.0
 30
0.0
210
0.0
220
0.0
230
1.0
  2
LINE45
 70
     0
 71
     0
 91
        1
 92
        7
 72
     0
 73
     1
 93
        4
 10
4.411999999999999
 20
5.777
 10
4.411999999999999
 20
5.677
 10
6.4
 20
5.677
 10
6.4
 20
5.777
 97
        0
 75
     0
 76
     1
 52
0.0
 41
1.0
 77
     0
 78
     1
 53
45.0
 43
0.0
 44
0.0
 45
-0.0883883476483184
 46
0.0883883476483184
 79
     0
 47
0.0
 98
        1
 10
0.0
 20
0.0
1001
ACAD
1010
0.0
1020
0.0
1030
0.0
  0
LWPOLYLINE
  5
199
330
17
100
AcDbEntity
  8
0
100
AcDbPolyline
 90
        4
 70
     1
 43
0.0
 10
4.411999999999999
 20
5.777
 10
4.411999999999999
 20
5.677
 10
6.4
 20
5.677
 10
6.4
 20
5.777
  0
HATCH
  5
19A
330
17
100
AcDbEntity
  8
0
 62
     9
100
AcDbHatch
 10
0.0
 20
0.0
 30
0.0
210
0.0
220
0.0
230
1.0
  2
LINE45
 70
     0
 71
     0
 91
        1
 92
        7
 72
     0
 73
     1
 93
        4
 10
6.45
 20
5.727
 10
6.349999999999999
 20
5.727
 10
6.349999999999999
 20
4.727
 10
6.45
 20
4.727
 97
        0
 75
     0
 76
     1
 52
0.0
 41
1.0
 77
     0
 78
     1
 53
45.0
 43
0.0
 44
0.0
 45
-0.0883883476483184
 46
0.0883883476483184
 79
     0
 47
0.0
 98
        1
 10
0.0
 20
0.0
1001
ACAD
1010
0.0
1020
0.0
1030
0.0
  0
LWPOLYLINE
  5
19B
330
17
100
AcDbEntity
  8
0
100
AcDbPolyline
 90
        4
 70
     1
 43
0.0
 10
6.45
 20
5.727
 10
6.349999999999999
 20
5.727
 10
6.349999999999999
 20
4.727
 10
6.45
 20
4.727
  0
HATCH
  5
19C
330
17
100
AcDbEntity
  8
0
 62
     9
100
AcDbHatch
 10
0.0
 20
0.0
 30
0.0
210
0.0
220
0.0
230
1.0
  2
LINE45
 70
     0
 71
     0
 91
        1
 92
        7
 72
     0
 73
     1
 93
        4
 10
6.4
 20
4.777
 10
6.4
 20
4.676999999999999
 10
7.867999999999999
 20
4.676999999999999
 10
7.867999999999999
 20
4.777
 97
        0
 75
     0
 76
     1
 52
0.0
 41
1.0
 77
     0
 78
     1
 53
45.0
 43
0.0
 44
0.0
 45
-0.0883883476483184
 46
0.0883883476483184
 79
     0
 47
0.0
 98
        1
 10
0.0
 20
0.0
1001
ACAD
1010
0.0
1020
0.0
1030
0.0
  0
LWPOLYLINE
  5
19D
330
17
100
AcDbEntity
  8
0
100
AcDbPolyline
 90
        4
 70
     1
 43
0.0
 10
6.4
 20
4.777
 10
6.4
 20
4.676999999999999
 10
7.867999999999999
 20
4.676999999999999
 10
7.867999999999999
 20
4.777
  0
HATCH
  5
19E
330
17
100
AcDbEntity
  8
0
 62
     9
100
AcDbHatch
 10
0.0
 20
0.0
 30
0.0
210
0.0
220
0.0
230
1.0
  2
LINE45
 70
     0
 71
     0
 91
        1
 92
        7
 72
     0
 73
     1
 93
        4
 10
9.932
 20
4.777
 10
9.932
 20
4.676999999999999
 10
11.4
 20
4.676999999999999
 10
11.4
 20
4.777
 97
        0
 75
     0
 76
     1
 52
0.0
 41
1.0
 77
     0
 78
     1
 53
45.0
 43
0.0
 44
0.0
 45
-0.0883883476483184
 46
0.0883883476483184
 79
     0
 47
0.0
 98
        1
 10
0.0
 20
0.0
1001
ACAD
1010
0.0
1020
0.0
1030
0.0
  0
LWPOLYLINE
  5
19F
330
17
100
AcDbEntity
  8
0
100
AcDbPolyline
 90
        4
 70
     1
 43
0.0
 10
9.932
 20
4.777
 10
9.932
 20
4.676999999999999
 10
11.4
 20
4.676999999999999
 10
11.4
 20
4.777
  0
HATCH
  5
1A0
330
17
100
AcDbEntity
  8
0
 62
     9
100
AcDbHatch
 10
0.0
 20
0.0
 30
0.0
210
0.0
220
0.0
230
1.0
  2
LINE45
 70
     0
 71
     0
 91
        1
 92
        7
 72
     0
 73
     1
 93
        4
 10
1.0
 20
9.926999999999999
 10
1.0
 20
9.826999999999999
 10
4.141999999999999
 20
9.826999999999999
 10
4.141999999999999
 20
9.926999999999999
 97
        0
 75
     0
 76
     1
 52
0.0
 41
1.0
 77
     0
 78
     1
 53
45.0
 43
0.0
 44
0.0
 45
-0.0883883476483184
 46
0.0883883476483184
 79
     0
 47
0.0
 98
        1
 10
0.0
 20
0.0
1001
ACAD
1010
0.0
1020
0.0
1030
0.0
  0
LWPOLYLINE
  5
1A1
330
17
100
AcDbEntity
  8
0
100
AcDbPolyline
 90
        4
 70
     1
 43
0.0
 10
1.0
 20
9.926999999999999
 10
1.0
 20
9.826999999999999
 10
4.141999999999999
 20
9.826999999999999
 10
4.141999999999999
 20
9.926999999999999
  0
HATCH
  5
1A2
330
17
100
AcDbEntity
  8
0
 62
     9
100
AcDbHatch
 10
0.0
 20
0.0
 30
0.0
210
0.0
220
0.0
230
1.0
  2
LINE45
 70
     0
 71
     0
 91
        1
 92
        7
 72
     0
 73
     1
 93
        4
 10
5.839999999999999
 20
9.926999999999999
 10
5.839999999999999
 20
9.826999999999999
 10
8.9
 20
9.826999999999999
 10
8.9
 20
9.926999999999999
 97
        0
 75
     0
 76
     1
 52
0.0
 41
1.0
 77
     0
 78
     1
 53
45.0
 43
0.0
 44
0.0
 45
-0.0883883476483184
 46
0.0883883476483184
 79
     0
 47
0.0
 98
        1
 10
0.0
 20
0.0
1001
ACAD
1010
0.0
1020
0.0
1030
0.0
  0
LWPOLYLINE
  5
1A3
330
17
100
AcDbEntity
  8
0
100
AcDbPolyline
 90
        4
 70
     1
 43
0.0
 10
5.839999999999999
 20
9.926999999999999
 10
5.839999999999999
 20
9.826999999999999
 10
8.9
 20
9.826999999999999
 10
8.9
 20
9.926999999999999
  0
HATCH
  5
1A4
330
17
100
AcDbEntity
  8
0
 62
     9
100
AcDbHatch
 10
0.0
 20
0.0
 30
0.0
210
0.0
220
0.0
230
1.0
  2
LINE45
 70
     0
 71
     0
 91
        1
 92
        7
 72
     0
 73
     1
 93
        4
 10
8.849999999999999
 20
9.877
 10
8.949999999999999
 20
9.877
 10
8.949999999999999
 20
14.027
 10
8.849999999999999
 20
14.027
 97
        0
 75
     0
 76
     1
 52
0.0
 41
1.0
 77
     0
 78
     1
 53
45.0
 43
0.0
 44
0.0
 45
-0.0883883476483184
 46
0.0883883476483184
 79
     0
 47
0.0
 98
        1
 10
0.0
 20
0.0
1001
ACAD
1010
0.0
1020
0.0
1030
0.0
  0
LWPOLYLINE
  5
1A5
330
17
100
AcDbEntity
  8
0
100
AcDbPolyline
 90
        4
 70
     1
 43
0.0
 10
8.849999999999999
 20
9.877
 10
8.949999999999999
 20
9.877
 10
8.949999999999999
 20
14.027
 10
8.849999999999999
 20
14.027
  0
HATCH
  5
1A6
330
17
100
AcDbEntity
  8
0
 62
     9
100
AcDbHatch
 10
0.0
 20
0.0
 30
0.0
210
0.0
220
0.0
230
1.0
  2
LINE45
 70
     0
 71
     0
 91
        1
 92
        7
 72
     0
 73
     1
 93
        4
 10
11.35
 20
4.727
 10
11.45
 20
4.727
 10
11.45
 20
5.727
 10
11.35
 20
5.727
 97
        0
 75
     0
 76
     1
 52
0.0
 41
1.0
 77
     0
 78
     1
 53
45.0
 43
0.0
 44
0.0
 45
-0.0883883476483184
 46
0.0883883476483184
 79
     0
 47
0.0
 98
        1
 10
0.0
 20
0.0
1001
ACAD
1010
0.0
1020
0.0
1030
0.0
  0
LWPOLYLINE
  5
1A7
330
17
100
AcDbEntity
  8
0
100
AcDbPolyline
 90
        4
 70
     1
 43
0.0
 10
11.35
 20
4.727
 10
11.45
 20
4.727
 10
11.45
 20
5.727
 10
11.35
 20
5.727
  0
HATCH
  5
1A8
330
17
100
AcDbEntity
  8
0
 62
     9
100
AcDbHatch
 10
0.0
 20
0.0
 30
0.0
210
0.0
220
0.0
230
1.0
  2
LINE45
 70
     0
 71
     0
 91
        1
 92
        7
 72
     0
 73
     1
 93
        4
 10
1.05
 20
14.027
 10
0.95
 20
14.027
 10
0.95
 20
12.527
 10
1.05
 20
12.527
 97
        0
 75
     0
 76
     1
 52
0.0
 41
1.0
 77
     0
 78
     1
 53
45.0
 43
0.0
 44
0.0
 45
-0.0883883476483184
 46
0.0883883476483184
 79
     0
 47
0.0
 98
        1
 10
0.0
 20
0.0
1001
ACAD
1010
0.0
1020
0.0
1030
0.0
  0
LWPOLYLINE
  5
1A9
330
17
100
AcDbEntity
  8
0
100
AcDbPolyline
 90
        4
 70
     1
 43
0.0
 10
1.05
 20
14.027
 10
0.95
 20
14.027
 10
0.95
 20
12.527
 10
1.05
 20
12.527
  0
HATCH
  5
1AA
330
17
100
AcDbEntity
  8
0
 62
     9
100
AcDbHatch
 10
0.0
 20
0.0
 30
0.0
210
0.0
220
0.0
230
1.0
  2
LINE45
 70
     0
 71
     0
 91
        1
 92
        7
 72
     0
 73
     1
 93
        4
 10
1.05
 20
11.127
 10
0.95
 20
11.127
 10
0.95
 20
8.627
 10
1.05
 20
8.627
 97
        0
 75
     0
 76
     1
 52
0.0
 41
1.0
 77
     0
 78
     1
 53
45.0
 43
0.0
 44
0.0
 45
-0.0883883476483184
 46
0.0883883476483184
 79
     0
 47
0.0
 98
        1
 10
0.0
 20
0.0
1001
ACAD
1010
0.0
1020
0.0
1030
0.0
  0
LWPOLYLINE
  5
1AB
330
17
100
AcDbEntity
  8
0
100
AcDbPolyline
 90
        4
 70
     1
 43
0.0
 10
1.05
 20
11.127
 10
0.95
 20
11.127
 10
0.95
 20
8.627
 10
1.05
 20
8.627
  0
HATCH
  5
1AC
330
17
100
AcDbEntity
  8
0
 62
     9
100
AcDbHatch
 10
0.0
 20
0.0
 30
0.0
210
0.0
220
0.0
230
1.0
  2
LINE45
 70
     0
 71
     0
 91
        1
 92
        7
 72
     0
 73
     1
 93
        4
 10
1.05
 20
7.227
 10
0.95
 20
7.227
 10
0.95
 20
5.727
 10
1.05
 20
5.727
 97
        0
 75
     0
 76
     1
 52
0.0
 41
1.0
 77
     0
 78
     1
 53
45.0
 43
0.0
 44
0.0
 45
-0.0883883476483184
 46
0.0883883476483184
 79
     0
 47
0.0
 98
        1
 10
0.0
 20
0.0
1001
ACAD
1010
0.0
1020
0.0
1030
0.0
  0
LWPOLYLINE
  5
1AD
330
17
100
AcDbEntity
  8
0
100
AcDbPolyline
 90
        4
 70
     1
 43
0.0
 10
1.05
 20
7.227
 10
0.95
 20
7.227
 10
0.95
 20
5.727
 10
1.05
 20
5.727
  0
HATCH
  5
1AE
330
17
100
AcDbEntity
  8
0
 62
     9
100
AcDbHatch
 10
0.0
 20
0.0
 30
0.0
210
0.0
220
0.0
230
1.0
  2
LINE45
 70
     0
 71
     0
 91
        1
 92
        7
 72
     0
 73
     1
 93
        4
 10
8.9
 20
9.926999999999999
 10
8.9
 20
9.826999999999999
 10
11.4
 20
9.826999999999999
 10
11.4
 20
9.926999999999999
 97
        0
 75
     0
 76
     1
 52
0.0
 41
1.0
 77
     0
 78
     1
 53
45.0
 43
0.0
 44
0.0
 45
-0.0883883476483184
 46
0.0883883476483184
 79
     0
 47
0.0
 98
        1
 10
0.0
 20
0.0
1001
ACAD
1010
0.0
1020
0.0
1030
0.0
  0
LWPOLYLINE
  5
1AF
330
17
100
AcDbEntity
  8
0
100
AcDbPolyline
 90
        4
 70
     1
 43
0.0
 10
8.9
 20
9.926999999999999
 10
8.9
 20
9.826999999999999
 10
11.4
 20
9.826999999999999
 10
11.4
 20
9.926999999999999
  0
HATCH
  5
1B0
330
17
100
AcDbEntity
  8
0
 62
     9
100
AcDbHatch
 10
0.0
 20
0.0
 30
0.0
210
0.0
220
0.0
230
1.0
  2
LINE45
 70
     0
 71
     0
 91
        1
 92
        7
 72
     0
 73
     1
 93
        4
 10
11.35
 20
5.727
 10
11.45
 20
5.727
 10
11.45
 20
8.527000000000001
 10
11.35
 20
8.527000000000001
 97
        0
 75
     0
 76
     1
 52
0.0
 41
1.0
 77
     0
 78
     1
 53
45.0
 43
0.0
 44
0.0
 45
-0.0883883476483184
 46
0.0883883476483184
 79
     0
 47
0.0
 98
        1
 10
0.0
 20
0.0
1001
ACAD
1010
0.0
1020
0.0
1030
0.0
  0
LWPOLYLINE
  5
1B1
330
17
100
AcDbEntity
  8
0
100
AcDbPolyline
 90
        4
 70
     1
 43
0.0
 10
11.35
 20
5.727
 10
11.45
 20
5.727
 10
11.45
 20
8.527000000000001
 10
11.35
 20
8.527000000000001
  0
HATCH
  5
1B2
330
17
100
AcDbEntity
  8
0
 62
     9
100
AcDbHatch
 10
0.0
 20
0.0
 30
0.0
210
0.0
220
0.0
230
1.0
  2
LINE45
 70
     0
 71
     0
 91
        1
 92
        7
 72
     0
 73
     1
 93
        4
 10
11.4
 20
5.777
 10
11.4
 20
5.677
 10
13.388
 20
5.677
 10
13.388
 20
5.777
 97
        0
 75
     0
 76
     1
 52
0.0
 41
1.0
 77
     0
 78
     1
 53
45.0
 43
0.0
 44
0.0
 45
-0.0883883476483184
 46
0.0883883476483184
 79
     0
 47
0.0
 98
        1
 10
0.0
 20
0.0
1001
ACAD
1010
0.0
1020
0.0
1030
0.0
  0
LWPOLYLINE
  5
1B3
330
17
100
AcDbEntity
  8
0
100
AcDbPolyline
 90
        4
 70
     1
 43
0.0
 10
11.4
 20
5.777
 10
11.4
 20
5.677
 10
13.388
 20
5.677
 10
13.388
 20
5.777
  0
HATCH
  5
1B4
330
17
100
AcDbEntity
  8
0
 62
     9
100
AcDbHatch
 10
0.0
 20
0.0
 30
0.0
210
0.0
220
0.0
230
1.0
  2
LINE45
 70
     0
 71
     0
 91
        1
 92
        7
 72
     0
 73
     1
 93
        4
 10
16.29
 20
5.777
 10
16.29
 20
5.677
 10
16.8
 20
5.677
 10
16.8
 20
5.777
 97
        0
 75
     0
 76
     1
 52
0.0
 41
1.0
 77
     0
 78
     1
 53
45.0
 43
0.0
 44
0.0
 45
-0.0883883476483184
 46
0.0883883476483184
 79
     0
 47
0.0
 98
        1
 10
0.0
 20
0.0
1001
ACAD
1010
0.0
1020
0.0
1030
0.0
  0
LWPOLYLINE
  5
1B5
330
17
100
AcDbEntity
  8
0
100
AcDbPolyline
 90
        4
 70
     1
 43
0.0
 10
16.29
 20
5.777
 10
16.29
 20
5.677
 10
16.8
 20
5.677
 10
16.8
 20
5.777
  0
HATCH
  5
1B6
330
17
100
AcDbEntity
  8
0
 62
     9
100
AcDbHatch
 10
0.0
 20
0.0
 30
0.0
210
0.0
220
0.0
230
1.0
  2
LINE45
 70
     0
 71
     0
 91
        1
 92
        7
 72
     0
 73
     1
 93
        4
 10
8.9
 20
14.077
 10
8.9
 20
13.977
 10
12.8
 20
13.977
 10
12.8
 20
14.077
 97
        0
 75
     0
 76
     1
 52
0.0
 41
1.0
 77
     0
 78
     1
 53
45.0
 43
0.0
 44
0.0
 45
-0.0883883476483184
 46
0.0883883476483184
 79
     0
 47
0.0
 98
        1
 10
0.0
 20
0.0
1001
ACAD
1010
0.0
1020
0.0
1030
0.0
  0
LWPOLYLINE
  5
1B7
330
17
100
AcDbEntity
  8
0
100
AcDbPolyline
 90
        4
 70
     1
 43
0.0
 10
8.9
 20
14.077
 10
8.9
 20
13.977
 10
12.8
 20
13.977
 10
12.8
 20
14.077
  0
HATCH
  5
1B8
330
17
100
AcDbEntity
  8
0
 62
     9
100
AcDbHatch
 10
0.0
 20
0.0
 30
0.0
210
0.0
220
0.0
230
1.0
  2
LINE45
 70
     0
 71
     0
 91
        1
 92
        7
 72
     0
 73
     1
 93
        4
 10
14.4
 20
14.077
 10
14.4
 20
13.977
 10
16.8
 20
13.977
 10
16.8
 20
14.077
 97
        0
 75
     0
 76
     1
 52
0.0
 41
1.0
 77
     0
 78
     1
 53
45.0
 43
0.0
 44
0.0
 45
-0.0883883476483184
 46
0.0883883476483184
 79
     0
 47
0.0
 98
        1
 10
0.0
 20
0.0
1001
ACAD
1010
0.0
1020
0.0
1030
0.0
  0
LWPOLYLINE
  5
1B9
330
17
100
AcDbEntity
  8
0
100
AcDbPolyline
 90
        4
 70
     1
 43
0.0
 10
14.4
 20
14.077
 10
14.4
 20
13.977
 10
16.8
 20
13.977
 10
16.8
 20
14.077
  0
HATCH
  5
1BA
330
17
100
AcDbEntity
  8
0
 62
     9
100
AcDbHatch
 10
0.0
 20
0.0
 30
0.0
210
0.0
220
0.0
230
1.0
  2
LINE45
 70
     0
 71
     0
 91
        1
 92
        7
 72
     0
 73
     1
 93
        4
 10
16.75
 20
5.727
 10
16.85
 20
5.727
 10
16.85
 20
10.801
 10
16.75
 20
10.801
 97
        0
 75
     0
 76
     1
 52
0.0
 41
1.0
 77
     0
 78
     1
 53
45.0
 43
0.0
 44
0.0
 45
-0.0883883476483184
 46
0.0883883476483184
 79
     0
 47
0.0
 98
        1
 10
0.0
 20
0.0
1001
ACAD
1010
0.0
1020
0.0
1030
0.0
  0
LWPOLYLINE
  5
1BB
330
17
100
AcDbEntity
  8
0
100
AcDbPolyline
 90
        4
 70
     1
 43
0.0
 10
16.75
 20
5.727
 10
16.85
 20
5.727
 10
16.85
 20
10.801
 10
16.75
 20
10.801
  0
HATCH
  5
1BC
330
17
100
AcDbEntity
  8
0
 62
     9
100
AcDbHatch
 10
0.0
 20
0.0
 30
0.0
210
0.0
220
0.0
230
1.0
  2
LINE45
 70
     0
 71
     0
 91
        1
 92
        7
 72
     0
 73
     1
 93
        4
 10
16.75
 20
12.527
 10
16.85
 20
12.527
 10
16.85
 20
14.027
 10
16.75
 20
14.027
 97
        0
 75
     0
 76
     1
 52
0.0
 41
1.0
 77
     0
 78
     1
 53
45.0
 43
0.0
 44
0.0
 45
-0.0883883476483184
 46
0.0883883476483184
 79
     0
 47
0.0
 98
        1
 10
0.0
 20
0.0
1001
ACAD
1010
0.0
1020
0.0
1030
0.0
  0
LWPOLYLINE
  5
1BD
330
17
100
AcDbEntity
  8
0
100
AcDbPolyline
 90
        4
 70
     1
 43
0.0
 10
16.75
 20
12.527
 10
16.85
 20
12.527
 10
16.85
 20
14.027
 10
16.75
 20
14.027
  0
HATCH
  5
1BE
330
17
100
AcDbEntity
  8
0
 62
     9
100
AcDbHatch
 10
0.0
 20
0.0
 30
0.0
210
0.0
220
0.0
230
1.0
  2
LINE45
 70
     0
 71
     0
 91
        1
 92
        7
 72
     0
 73
     1
 93
        4
 10
6.349999999999999
 20
5.727
 10
6.45
 20
5.727
 10
6.45
 20
8.527000000000001
 10
6.349999999999999
 20
8.527000000000001
 97
        0
 75
     0
 76
     1
 52
0.0
 41
1.0
 77
     0
 78
     1
 53
45.0
 43
0.0
 44
0.0
 45
-0.0883883476483184
 46
0.0883883476483184
 79
     0
 47
0.0
 98
        1
 10
0.0
 20
0.0
1001
ACAD
1010
0.0
1020
0.0
1030
0.0
  0
LWPOLYLINE
  5
1BF
330
17
100
AcDbEntity
  8
0
100
AcDbPolyline
 90
        4
 70
     1
 43
0.0
 10
6.349999999999999
 20
5.727
 10
6.45
 20
5.727
 10
6.45
 20
8.527000000000001
 10
6.349999999999999
 20
8.527000000000001
  0
HATCH
  5
1C0
330
17
100
AcDbEntity
  8
0
 62
     9
100
AcDbHatch
 10
0.0
 20
0.0
 30
0.0
210
0.0
220
0.0
230
1.0
  2
LINE45
 70
     0
 71
     0
 91
        1
 92
        7
 72
     0
 73
     1
 93
        4
 10
1.0
 20
14.077
 10
1.0
 20
13.977
 10
3.399999999999999
 20
13.977
 10
3.399999999999999
 20
14.077
 97
        0
 75
     0
 76
     1
 52
0.0
 41
1.0
 77
     0
 78
     1
 53
45.0
 43
0.0
 44
0.0
 45
-0.0883883476483184
 46
0.0883883476483184
 79
     0
 47
0.0
 98
        1
 10
0.0
 20
0.0
1001
ACAD
1010
0.0
1020
0.0
1030
0.0
  0
LWPOLYLINE
  5
1C1
330
17
100
AcDbEntity
  8
0
100
AcDbPolyline
 90
        4
 70
     1
 43
0.0
 10
1.0
 20
14.077
 10
1.0
 20
13.977
 10
3.399999999999999
 20
13.977
 10
3.399999999999999
 20
14.077
  0
HATCH
  5
1C2
330
17
100
AcDbEntity
  8
0
 62
     9
100
AcDbHatch
 10
0.0
 20
0.0
 30
0.0
210
0.0
220
0.0
230
1.0
  2
LINE45
 70
     0
 71
     0
 91
        1
 92
        7
 72
     0
 73
     1
 93
        4
 10
3.399999999999999
 20
14.077
 10
3.399999999999999
 20
13.977
 10
5.0
 20
13.977
 10
5.0
 20
14.077
 97
        0
 75
     0
 76
     1
 52
0.0
 41
1.0
 77
     0
 78
     1
 53
45.0
 43
0.0
 44
0.0
 45
-0.0883883476483184
 46
0.0883883476483184
 79
     0
 47
0.0
 98
        1
 10
0.0
 20
0.0
1001
ACAD
1010
0.0
1020
0.0
1030
0.0
  0
LWPOLYLINE
  5
1C3
330
17
100
AcDbEntity
  8
0
100
AcDbPolyline
 90
        4
 70
     1
 43
0.0
 10
3.399999999999999
 20
14.077
 10
3.399999999999999
 20
13.977
 10
5.0
 20
13.977
 10
5.0
 20
14.077
  0
HATCH
  5
1C4
330
17
100
AcDbEntity
  8
0
 62
     9
100
AcDbHatch
 10
0.0
 20
0.0
 30
0.0
210
0.0
220
0.0
230
1.0
  2
LINE45
 70
     0
 71
     0
 91
        1
 92
        7
 72
     0
 73
     1
 93
        4
 10
5.0
 20
14.077
 10
5.0
 20
13.977
 10
8.9
 20
13.977
 10
8.9
 20
14.077
 97
        0
 75
     0
 76
     1
 52
0.0
 41
1.0
 77
     0
 78
     1
 53
45.0
 43
0.0
 44
0.0
 45
-0.0883883476483184
 46
0.0883883476483184
 79
     0
 47
0.0
 98
        1
 10
0.0
 20
0.0
1001
ACAD
1010
0.0
1020
0.0
1030
0.0
  0
LWPOLYLINE
  5
1C5
330
17
100
AcDbEntity
  8
0
100
AcDbPolyline
 90
        4
 70
     1
 43
0.0
 10
5.0
 20
14.077
 10
5.0
 20
13.977
 10
8.9
 20
13.977
 10
8.9
 20
14.077
  0
MTEXT
  5
1C6
330
17
100
AcDbEntity
  8
Nomi pareti
100
AcDbMText
 10
1.254999999999999
 20
6.037
 30
0.0
 40
0.2
 41
0.459
 46
0.0
 71
     5
 72
     5
  1
Parete 22
 73
     1
 44
1.0
1001
ACAD
1000
MTEXTBEGIN
1070
    73
1070
     1
1070
    44
1040
1.0
1070
    74
1070
     0
1000
MTEXTEND
  0
MTEXT
  5
1C7
330
17
100
AcDbEntity
  8
Nomi pareti
100
AcDbMText
 10
5.406
 20
6.037
 30
0.0
 40
0.2
 41
1.789199999999999
 46
0.0
 71
     5
 72
     5
  1
Parete 23
 73
     1
 44
1.0
1001
ACAD
1000
MTEXTBEGIN
1070
    73
1070
     1
1070
    44
1040
1.0
1070
    74
1070
     0
1000
MTEXTEND
  0
MTEXT
  5
1C8
330
17
100
AcDbEntity
  8
Nomi pareti
100
AcDbMText
 10
6.709999999999999
 20
5.227
 30
0.0
 40
0.2
 41
0.9
 46
0.0
 71
     5
 72
     5
  1
Parete 24
 11
-0.0000000000000002
 21
-1.0
 31
0.0
 73
     1
 44
1.0
1001
ACAD
1000
MTEXTBEGIN
1070
    73
1070
     1
1070
    44
1040
1.0
1070
    74
1070
     0
1000
MTEXTEND
  0
MTEXT
  5
1C9
330
17
100
AcDbEntity
  8
Nomi pareti
100
AcDbMText
 10
7.133999999999999
 20
5.036999999999999
 30
0.0
 40
0.2
 41
1.321199999999999
 46
0.0
 71
     5
 72
     5
  1
Parete 25
 73
     1
 44
1.0
1001
ACAD
1000
MTEXTBEGIN
1070
    73
1070
     1
1070
    44
1040
1.0
1070
    74
1070
     0
1000
MTEXTEND
  0
MTEXT
  5
1CA
330
17
100
AcDbEntity
  8
Nomi pareti
100
AcDbMText
 10
10.666
 20
5.036999999999999
 30
0.0
 40
0.2
 41
1.321199999999999
 46
0.0
 71
     5
 72
     5
  1
Parete 26
 73
     1
 44
1.0
1001
ACAD
1000
MTEXTBEGIN
1070
    73
1070
     1
1070
    44
1040
1.0
1070
    74
1070
     0
1000
MTEXTEND
  0
MTEXT
  5
1CB
330
17
100
AcDbEntity
  8
Nomi pareti
100
AcDbMText
 10
2.571
 20
10.187
 30
0.0
 40
0.2
 41
2.827799999999999
 46
0.0
 71
     5
 72
     5
  1
Parete 27
 73
     1
 44
1.0
1001
ACAD
1000
MTEXTBEGIN
1070
    73
1070
     1
1070
    44
1040
1.0
1070
    74
1070
     0
1000
MTEXTEND
  0
MTEXT
  5
1CC
330
17
100
AcDbEntity
  8
Nomi pareti
100
AcDbMText
 10
7.37
 20
10.187
 30
0.0
 40
0.2
 41
2.753999999999999
 46
0.0
 71
     5
 72
     5
  1
Parete 29
 73
     1
 44
1.0
1001
ACAD
1000
MTEXTBEGIN
1070
    73
1070
     1
1070
    44
1040
1.0
1070
    74
1070
     0
1000
MTEXTEND
  0
MTEXT
  5
1CD
330
17
100
AcDbEntity
  8
Nomi pareti
100
AcDbMText
 10
9.21
 20
11.952
 30
0.0
 40
0.2
 41
3.734999999999999
 46
0.0
 71
     5
 72
     5
  1
Parete 30
 11
-0.0000000000000002
 21
-1.0
 31
0.0
 73
     1
 44
1.0
1001
ACAD
1000
MTEXTBEGIN
1070
    73
1070
     1
1070
    44
1040
1.0
1070
    74
1070
     0
1000
MTEXTEND
  0
MTEXT
  5
1CE
330
17
100
AcDbEntity
  8
Nomi pareti
100
AcDbMText
 10
11.71
 20
5.227
 30
0.0
 40
0.2
 41
0.9
 46
0.0
 71
     5
 72
     5
  1
Parete 31
 11
-0.0000000000000002
 21
-1.0
 31
0.0
 73
     1
 44
1.0
1001
ACAD
1000
MTEXTBEGIN
1070
    73
1070
     1
1070
    44
1040
1.0
1070
    74
1070
     0
1000
MTEXTEND
  0
MTEXT
  5
1CF
330
17
100
AcDbEntity
  8
Nomi pareti
100
AcDbMText
 10
1.31
 20
13.277
 30
0.0
 40
0.2
 41
1.35
 46
0.0
 71
     5
 72
     5
  1
Parete 33
 11
-0.0000000000000002
 21
-1.0
 31
0.0
 73
     1
 44
1.0
1001
ACAD
1000
MTEXTBEGIN
1070
    73
1070
     1
1070
    44
1040
1.0
1070
    74
1070
     0
1000
MTEXTEND
  0
MTEXT
  5
1D0
330
17
100
AcDbEntity
  8
Nomi pareti
100
AcDbMText
 10
1.31
 20
9.877
 30
0.0
 40
0.2
 41
2.25
 46
0.0
 71
     5
 72
     5
  1
Parete 34
 11
-0.0000000000000002
 21
-1.0
 31
0.0
 73
     1
 44
1.0
1001
ACAD
1000
MTEXTBEGIN
1070
    73
1070
     1
1070
    44
1040
1.0
1070
    74
1070
     0
1000
MTEXTEND
  0
MTEXT
  5
1D1
330
17
100
AcDbEntity
  8
Nomi pareti
100
AcDbMText
 10
1.31
 20
6.477
 30
0.0
 40
0.2
 41
1.35
 46
0.0
 71
     5
 72
     5
  1
Parete 35
 11
-0.0000000000000002
 21
-1.0
 31
0.0
 73
     1
 44
1.0
1001
ACAD
1000
MTEXTBEGIN
1070
    73
1070
     1
1070
    44
1040
1.0
1070
    74
1070
     0
1000
MTEXTEND
  0
MTEXT
  5
1D2
330
17
100
AcDbEntity
  8
Nomi pareti
100
AcDbMText
 10
10.15
 20
10.187
 30
0.0
 40
0.2
 41
2.25
 46
0.0
 71
     5
 72
     5
  1
Parete 36
 73
     1
 44
1.0
1001
ACAD
1000
MTEXTBEGIN
1070
    73
1070
     1
1070
    44
1040
1.0
1070
    74
1070
     0
1000
MTEXTEND
  0
MTEXT
  5
1D3
330
17
100
AcDbEntity
  8
Nomi pareti
100
AcDbMText
 10
11.71
 20
7.127
 30
0.0
 40
0.2
 41
2.52
 46
0.0
 71
     5
 72
     5
  1
Parete 37
 11
-0.0000000000000002
 21
-1.0
 31
0.0
 73
     1
 44
1.0
1001
ACAD
1000
MTEXTBEGIN
1070
    73
1070
     1
1070
    44
1040
1.0
1070
    74
1070
     0
1000
MTEXTEND
  0
MTEXT
  5
1D4
330
17
100
AcDbEntity
  8
Nomi pareti
100
AcDbMText
 10
12.394
 20
6.037
 30
0.0
 40
0.2
 41
1.789199999999999
 46
0.0
 71
     5
 72
     5
  1
Parete 38
 73
     1
 44
1.0
1001
ACAD
1000
MTEXTBEGIN
1070
    73
1070
     1
1070
    44
1040
1.0
1070
    74
1070
     0
1000
MTEXTEND
  0
MTEXT
  5
1D5
330
17
100
AcDbEntity
  8
Nomi pareti
100
AcDbMText
 10
16.545
 20
6.037
 30
0.0
 40
0.2
 41
0.4590000000000011
 46
0.0
 71
     5
 72
     5
  1
Parete 39
 73
     1
 44
1.0
1001
ACAD
1000
MTEXTBEGIN
1070
    73
1070
     1
1070
    44
1040
1.0
1070
    74
1070
     0
1000
MTEXTEND
  0
MTEXT
  5
1D6
330
17
100
AcDbEntity
  8
Nomi pareti
100
AcDbMText
 10
10.85
 20
14.337
 30
0.0
 40
0.2
 41
3.509999999999999
 46
0.0
 71
     5
 72
     5
  1
Parete 42
 73
     1
 44
1.0
1001
ACAD
1000
MTEXTBEGIN
1070
    73
1070
     1
1070
    44
1040
1.0
1070
    74
1070
     0
1000
MTEXTEND
  0
MTEXT
  5
1D7
330
17
100
AcDbEntity
  8
Nomi pareti
100
AcDbMText
 10
15.6
 20
14.337
 30
0.0
 40
0.2
 41
2.16
 46
0.0
 71
     5
 72
     5
  1
Parete 43
 73
     1
 44
1.0
1001
ACAD
1000
MTEXTBEGIN
1070
    73
1070
     1
1070
    44
1040
1.0
1070
    74
1070
     0
1000
MTEXTEND
  0
MTEXT
  5
1D8
330
17
100
AcDbEntity
  8
Nomi pareti
100
AcDbMText
 10
17.11
 20
8.263999999999999
 30
0.0
 40
0.2
 41
4.5666
 46
0.0
 71
     5
 72
     5
  1
Parete 44
 11
-0.0000000000000002
 21
-1.0
 31
0.0
 73
     1
 44
1.0
1001
ACAD
1000
MTEXTBEGIN
1070
    73
1070
     1
1070
    44
1040
1.0
1070
    74
1070
     0
1000
MTEXTEND
  0
MTEXT
  5
1D9
330
17
100
AcDbEntity
  8
Nomi pareti
100
AcDbMText
 10
17.11
 20
13.277
 30
0.0
 40
0.2
 41
1.35
 46
0.0
 71
     5
 72
     5
  1
Parete 46
 11
-0.0000000000000002
 21
-1.0
 31
0.0
 73
     1
 44
1.0
1001
ACAD
1000
MTEXTBEGIN
1070
    73
1070
     1
1070
    44
1040
1.0
1070
    74
1070
     0
1000
MTEXTEND
  0
MTEXT
  5
1DA
330
17
100
AcDbEntity
  8
Nomi pareti
100
AcDbMText
 10
6.709999999999999
 20
7.127
 30
0.0
 40
0.2
 41
2.52
 46
0.0
 71
     5
 72
     5
  1
Parete 62
 11
-0.0000000000000002
 21
-1.0
 31
0.0
 73
     1
 44
1.0
1001
ACAD
1000
MTEXTBEGIN
1070
    73
1070
     1
1070
    44
1040
1.0
1070
    74
1070
     0
1000
MTEXTEND
  0
MTEXT
  5
1DB
330
17
100
AcDbEntity
  8
Nomi pareti
100
AcDbMText
 10
2.2
 20
14.337
 30
0.0
 40
0.2
 41
2.16
 46
0.0
 71
     5
 72
     5
  1
Parete 63
 73
     1
 44
1.0
1001
ACAD
1000
MTEXTBEGIN
1070
    73
1070
     1
1070
    44
1040
1.0
1070
    74
1070
     0
1000
MTEXTEND
  0
MTEXT
  5
1DC
330
17
100
AcDbEntity
  8
Nomi pareti
100
AcDbMText
 10
4.2
 20
14.337
 30
0.0
 40
0.2
 41
1.439999999999999
 46
0.0
 71
     5
 72
     5
  1
Parete 64
 73
     1
 44
1.0
1001
ACAD
1000
MTEXTBEGIN
1070
    73
1070
     1
1070
    44
1040
1.0
1070
    74
1070
     0
1000
MTEXTEND
  0
MTEXT
  5
1DD
330
17
100
AcDbEntity
  8
Nomi pareti
100
AcDbMText
 10
6.95
 20
14.337
 30
0.0
 40
0.2
 41
3.509999999999999
 46
0.0
 71
     5
 72
     5
  1
Parete 65
 73
     1
 44
1.0
1001
ACAD
1000
MTEXTBEGIN
1070
    73
1070
     1
1070
    44
1040
1.0
1070
    74
1070
     0
1000
MTEXTEND
  0
INSERT
  5
1DF
330
17
100
AcDbEntity
  8
0
 62
     4
100
AcDbBlockReference
  2
HoldDown
 10
1.199999999999999
 20
5.727
 30
0.0
  0
INSERT
  5
1E1
330
17
100
AcDbEntity
  8
0
 62
     4
100
AcDbBlockReference
  2
HoldDown
 10
1.31
 20
5.727
 30
0.0
  0
TEXT
  5
1E2
330
17
100
AcDbEntity
  8
Connessioni a trazione
100
AcDbText
 10
1.188095238095238
 20
5.677
 30
0.0
 40
0.1
  1
1
 72
     1
 11
1.199999999999999
 21
5.727
 31
0.0
100
AcDbText
 73
     2
  0
TEXT
  5
1E3
330
17
100
AcDbEntity
  8
Connessioni a trazione
100
AcDbText
 10
1.298095238095238
 20
5.677
 30
0.0
 40
0.1
  1
1
 72
     1
 11
1.31
 21
5.727
 31
0.0
100
AcDbText
 73
     2
  0
INSERT
  5
1E5
330
17
100
AcDbEntity
  8
0
 62
     5
100
AcDbBlockReference
  2
AngleBracket
 10
1.254999999999999
 20
5.417
 30
0.0
  0
TEXT
  5
1E6
330
17
100
AcDbEntity
  8
Connessioni a taglio
 62
     5
100
AcDbText
 10
1.243095238095238
 20
5.197
 30
0.0
 40
0.1
  1
1
 72
     1
 11
1.254999999999999
 21
5.297
 31
0.0
100
AcDbText
 73
     3
  0
INSERT
  5
1E8
330
17
100
AcDbEntity
  8
0
 62
     4
100
AcDbBlockReference
  2
HoldDown
 10
4.612
 20
5.727
 30
0.0
  0
INSERT
  5
1EA
330
17
100
AcDbEntity
  8
0
 62
     4
100
AcDbBlockReference
  2
HoldDown
 10
6.2
 20
5.727
 30
0.0
  0
TEXT
  5
1EB
330
17
100
AcDbEntity
  8
Connessioni a trazione
100
AcDbText
 10
4.600095238095238
 20
5.677
 30
0.0
 40
0.1
  1
1
 72
     1
 11
4.612
 21
5.727
 31
0.0
100
AcDbText
 73
     2
  0
TEXT
  5
1EC
330
17
100
AcDbEntity
  8
Connessioni a trazione
100
AcDbText
 10
6.188095238095238
 20
5.677
 30
0.0
 40
0.1
  1
1
 72
     1
 11
6.2
 21
5.727
 31
0.0
100
AcDbText
 73
     2
  0
INSERT
  5
1EE
330
17
100
AcDbEntity
  8
0
 62
     5
100
AcDbBlockReference
  2
AngleBracket
 10
5.406
 20
5.417
 30
0.0
  0
TEXT
  5
1EF
330
17
100
AcDbEntity
  8
Connessioni a taglio
 62
     5
100
AcDbText
 10
5.372666666666667
 20
5.197
 30
0.0
 40
0.1
  1
3
 72
     1
 11
5.406
 21
5.297
 31
0.0
100
AcDbText
 73
     3
  0
INSERT
  5
1F1
330
17
100
AcDbEntity
  8
0
 62
     6
100
AcDbBlockReference
  2
HoldDown
 10
6.4
 20
5.527
 30
0.0
 50
270.0
  0
INSERT
  5
1F3
330
17
100
AcDbEntity
  8
0
 62
     6
100
AcDbBlockReference
  2
HoldDown
 10
6.4
 20
4.926999999999999
 30
0.0
 50
270.0
  0
TEXT
  5
1F4
330
17
100
AcDbEntity
  8
Connessioni a trazione
100
AcDbText
 10
6.388095238095238
 20
5.477
 30
0.0
 40
0.1
  1
1
 72
     1
 11
6.4
 21
5.527
 31
0.0
100
AcDbText
 73
     2
  0
TEXT
  5
1F5
330
17
100
AcDbEntity
  8
Connessioni a trazione
100
AcDbText
 10
6.388095238095238
 20
4.876999999999999
 30
0.0
 40
0.1
  1
1
 72
     1
 11
6.4
 21
4.926999999999999
 31
0.0
100
AcDbText
 73
     2
  0
INSERT
  5
1F7
330
17
100
AcDbEntity
  8
0
 62
     5
100
AcDbBlockReference
  2
AngleBracket
 10
6.089999999999999
 20
5.227
 30
0.0
 50
270.0
  0
TEXT
  5
1F8
330
17
100
AcDbEntity
  8
Connessioni a taglio
 62
     5
100
AcDbText
 10
5.87
 20
5.260333333333333
 30
0.0
 40
0.1
  1
2
 50
270.0
 72
     1
 11
5.969999999999999
 21
5.227
 31
0.0
100
AcDbText
 73
     3
  0
INSERT
  5
1FA
330
17
100
AcDbEntity
  8
0
 62
     6
100
AcDbBlockReference
  2
HoldDown
 10
6.599999999999999
 20
4.727
 30
0.0
  0
INSERT
  5
1FC
330
17
100
AcDbEntity
  8
0
 62
     6
100
AcDbBlockReference
  2
HoldDown
 10
7.667999999999999
 20
4.727
 30
0.0
  0
TEXT
  5
1FD
330
17
100
AcDbEntity
  8
Connessioni a trazione
100
AcDbText
 10
6.588095238095237
 20
4.677
 30
0.0
 40
0.1
  1
1
 72
     1
 11
6.599999999999999
 21
4.727
 31
0.0
100
AcDbText
 73
     2
  0
TEXT
  5
1FE
330
17
100
AcDbEntity
  8
Connessioni a trazione
100
AcDbText
 10
7.656095238095237
 20
4.677
 30
0.0
 40
0.1
  1
1
 72
     1
 11
7.667999999999999
 21
4.727
 31
0.0
100
AcDbText
 73
     2
  0
INSERT
  5
200
330
17
100
AcDbEntity
  8
0
 62
     5
100
AcDbBlockReference
  2
AngleBracket
 10
7.133999999999999
 20
4.416999999999999
 30
0.0
  0
TEXT
  5
201
330
17
100
AcDbEntity
  8
Connessioni a taglio
 62
     5
100
AcDbText
 10
7.100666666666666
 20
4.197
 30
0.0
 40
0.1
  1
2
 72
     1
 11
7.133999999999999
 21
4.296999999999999
 31
0.0
100
AcDbText
 73
     3
  0
INSERT
  5
203
330
17
100
AcDbEntity
  8
0
 62
     6
100
AcDbBlockReference
  2
HoldDown
 10
10.132
 20
4.727
 30
0.0
  0
INSERT
  5
205
330
17
100
AcDbEntity
  8
0
 62
     6
100
AcDbBlockReference
  2
HoldDown
 10
11.2
 20
4.727
 30
0.0
  0
TEXT
  5
206
330
17
100
AcDbEntity
  8
Connessioni a trazione
100
AcDbText
 10
10.12009523809523
 20
4.677
 30
0.0
 40
0.1
  1
1
 72
     1
 11
10.132
 21
4.727
 31
0.0
100
AcDbText
 73
     2
  0
TEXT
  5
207
330
17
100
AcDbEntity
  8
Connessioni a trazione
100
AcDbText
 10
11.18809523809523
 20
4.677
 30
0.0
 40
0.1
  1
1
 72
     1
 11
11.2
 21
4.727
 31
0.0
100
AcDbText
 73
     2
  0
INSERT
  5
209
330
17
100
AcDbEntity
  8
0
 62
     5
100
AcDbBlockReference
  2
AngleBracket
 10
10.666
 20
4.416999999999999
 30
0.0
  0
TEXT
  5
20A
330
17
100
AcDbEntity
  8
Connessioni a taglio
 62
     5
100
AcDbText
 10
10.63266666666666
 20
4.197
 30
0.0
 40
0.1
  1
2
 72
     1
 11
10.666
 21
4.296999999999999
 31
0.0
100
AcDbText
 73
     3
  0
INSERT
  5
20C
330
17
100
AcDbEntity
  8
0
 62
     4
100
AcDbBlockReference
  2
HoldDown
 10
1.199999999999999
 20
9.877
 30
0.0
  0
INSERT
  5
20E
330
17
100
AcDbEntity
  8
0
 62
     4
100
AcDbBlockReference
  2
HoldDown
 10
3.941999999999999
 20
9.877
 30
0.0
  0
TEXT
  5
20F
330
17
100
AcDbEntity
  8
Connessioni a trazione
100
AcDbText
 10
1.188095238095238
 20
9.826999999999999
 30
0.0
 40
0.1
  1
1
 72
     1
 11
1.199999999999999
 21
9.877
 31
0.0
100
AcDbText
 73
     2
  0
TEXT
  5
210
330
17
100
AcDbEntity
  8
Connessioni a trazione
100
AcDbText
 10
3.930095238095237
 20
9.826999999999999
 30
0.0
 40
0.1
  1
1
 72
     1
 11
3.941999999999999
 21
9.877
 31
0.0
100
AcDbText
 73
     2
  0
INSERT
  5
212
330
17
100
AcDbEntity
  8
0
 62
     5
100
AcDbBlockReference
  2
AngleBracket
 10
2.571
 20
9.567
 30
0.0
  0
TEXT
  5
213
330
17
100
AcDbEntity
  8
Connessioni a taglio
 62
     5
100
AcDbText
 10
2.540047619047619
 20
9.347000000000001
 30
0.0
 40
0.1
  1
6
 72
     1
 11
2.571
 21
9.447
 31
0.0
100
AcDbText
 73
     3
  0
INSERT
  5
215
330
17
100
AcDbEntity
  8
0
 62
     6
100
AcDbBlockReference
  2
HoldDown
 10
11.4
 20
4.926999999999999
 30
0.0
 50
90.0
  0
INSERT
  5
217
330
17
100
AcDbEntity
  8
0
 62
     6
100
AcDbBlockReference
  2
HoldDown
 10
11.4
 20
5.527
 30
0.0
 50
90.0
  0
TEXT
  5
218
330
17
100
AcDbEntity
  8
Connessioni a trazione
100
AcDbText
 10
11.38809523809523
 20
4.876999999999999
 30
0.0
 40
0.1
  1
1
 72
     1
 11
11.4
 21
4.926999999999999
 31
0.0
100
AcDbText
 73
     2
  0
TEXT
  5
219
330
17
100
AcDbEntity
  8
Connessioni a trazione
100
AcDbText
 10
11.38809523809523
 20
5.477
 30
0.0
 40
0.1
  1
1
 72
     1
 11
11.4
 21
5.527
 31
0.0
100
AcDbText
 73
     2
  0
INSERT
  5
21B
330
17
100
AcDbEntity
  8
0
 62
     5
100
AcDbBlockReference
  2
AngleBracket
 10
11.09
 20
5.227
 30
0.0
 50
270.0
  0
TEXT
  5
21C
330
17
100
AcDbEntity
  8
Connessioni a taglio
 62
     5
100
AcDbText
 10
10.87
 20
5.260333333333333
 30
0.0
 40
0.1
  1
2
 50
270.0
 72
     1
 11
10.97
 21
5.227
 31
0.0
100
AcDbText
 73
     3
  0
INSERT
  5
21E
330
17
100
AcDbEntity
  8
0
 62
     6
100
AcDbBlockReference
  2
HoldDown
 10
1.0
 20
13.827
 30
0.0
 50
270.0
  0
INSERT
  5
220
330
17
100
AcDbEntity
  8
0
 62
     6
100
AcDbBlockReference
  2
HoldDown
 10
1.0
 20
12.727
 30
0.0
 50
270.0
  0
TEXT
  5
221
330
17
100
AcDbEntity
  8
Connessioni a trazione
100
AcDbText
 10
0.9880952380952381
 20
13.777
 30
0.0
 40
0.1
  1
1
 72
     1
 11
1.0
 21
13.827
 31
0.0
100
AcDbText
 73
     2
  0
TEXT
  5
222
330
17
100
AcDbEntity
  8
Connessioni a trazione
100
AcDbText
 10
0.9880952380952381
 20
12.677
 30
0.0
 40
0.1
  1
1
 72
     1
 11
1.0
 21
12.727
 31
0.0
100
AcDbText
 73
     2
  0
INSERT
  5
224
330
17
100
AcDbEntity
  8
0
 62
     5
100
AcDbBlockReference
  2
AngleBracket
 10
0.69
 20
13.277
 30
0.0
 50
270.0
  0
TEXT
  5
225
330
17
100
AcDbEntity
  8
Connessioni a taglio
 62
     5
100
AcDbText
 10
0.47
 20
13.31033333333333
 30
0.0
 40
0.1
  1
3
 50
270.0
 72
     1
 11
0.57
 21
13.277
 31
0.0
100
AcDbText
 73
     3
  0
INSERT
  5
227
330
17
100
AcDbEntity
  8
0
 62
     6
100
AcDbBlockReference
  2
HoldDown
 10
1.0
 20
10.927
 30
0.0
 50
270.0
  0
INSERT
  5
229
330
17
100
AcDbEntity
  8
0
 62
     6
100
AcDbBlockReference
  2
HoldDown
 10
1.0
 20
8.826999999999999
 30
0.0
 50
270.0
  0
TEXT
  5
22A
330
17
100
AcDbEntity
  8
Connessioni a trazione
100
AcDbText
 10
0.9880952380952381
 20
10.877
 30
0.0
 40
0.1
  1
1
 72
     1
 11
1.0
 21
10.927
 31
0.0
100
AcDbText
 73
     2
  0
TEXT
  5
22B
330
17
100
AcDbEntity
  8
Connessioni a trazione
100
AcDbText
 10
0.9880952380952381
 20
8.776999999999999
 30
0.0
 40
0.1
  1
1
 72
     1
 11
1.0
 21
8.826999999999999
 31
0.0
100
AcDbText
 73
     2
  0
INSERT
  5
22D
330
17
100
AcDbEntity
  8
0
 62
     5
100
AcDbBlockReference
  2
AngleBracket
 10
0.69
 20
9.877
 30
0.0
 50
270.0
  0
TEXT
  5
22E
330
17
100
AcDbEntity
  8
Connessioni a taglio
 62
     5
100
AcDbText
 10
0.47
 20
9.910333333333333
 30
0.0
 40
0.1
  1
5
 50
270.0
 72
     1
 11
0.57
 21
9.877
 31
0.0
100
AcDbText
 73
     3
  0
INSERT
  5
230
330
17
100
AcDbEntity
  8
0
 62
     6
100
AcDbBlockReference
  2
HoldDown
 10
1.0
 20
7.027
 30
0.0
 50
270.0
  0
INSERT
  5
232
330
17
100
AcDbEntity
  8
0
 62
     6
100
AcDbBlockReference
  2
HoldDown
 10
1.0
 20
5.927
 30
0.0
 50
270.0
  0
TEXT
  5
233
330
17
100
AcDbEntity
  8
Connessioni a trazione
100
AcDbText
 10
0.9880952380952381
 20
6.977
 30
0.0
 40
0.1
  1
1
 72
     1
 11
1.0
 21
7.027
 31
0.0
100
AcDbText
 73
     2
  0
TEXT
  5
234
330
17
100
AcDbEntity
  8
Connessioni a trazione
100
AcDbText
 10
0.9880952380952381
 20
5.877
 30
0.0
 40
0.1
  1
1
 72
     1
 11
1.0
 21
5.927
 31
0.0
100
AcDbText
 73
     2
  0
INSERT
  5
236
330
17
100
AcDbEntity
  8
0
 62
     5
100
AcDbBlockReference
  2
AngleBracket
 10
0.69
 20
6.477
 30
0.0
 50
270.0
  0
TEXT
  5
237
330
17
100
AcDbEntity
  8
Connessioni a taglio
 62
     5
100
AcDbText
 10
0.47
 20
6.510333333333333
 30
0.0
 40
0.1
  1
3
 50
270.0
 72
     1
 11
0.57
 21
6.477
 31
0.0
100
AcDbText
 73
     3
  0
INSERT
  5
239
330
17
100
AcDbEntity
  8
0
 62
     4
100
AcDbBlockReference
  2
HoldDown
 10
11.4
 20
5.927
 30
0.0
 50
90.0
  0
INSERT
  5
23B
330
17
100
AcDbEntity
  8
0
 62
     4
100
AcDbBlockReference
  2
HoldDown
 10
11.4
 20
8.326999999999999
 30
0.0
 50
90.0
  0
TEXT
  5
23C
330
17
100
AcDbEntity
  8
Connessioni a trazione
100
AcDbText
 10
11.38809523809523
 20
5.877
 30
0.0
 40
0.1
  1
1
 72
     1
 11
11.4
 21
5.927
 31
0.0
100
AcDbText
 73
     2
  0
TEXT
  5
23D
330
17
100
AcDbEntity
  8
Connessioni a trazione
100
AcDbText
 10
11.38809523809523
 20
8.276999999999999
 30
0.0
 40
0.1
  1
1
 72
     1
 11
11.4
 21
8.326999999999999
 31
0.0
100
AcDbText
 73
     2
  0
INSERT
  5
23F
330
17
100
AcDbEntity
  8
0
 62
     5
100
AcDbBlockReference
  2
AngleBracket
 10
11.09
 20
7.127
 30
0.0
 50
270.0
  0
TEXT
  5
240
330
17
100
AcDbEntity
  8
Connessioni a taglio
 62
     5
100
AcDbText
 10
10.87
 20
7.160333333333333
 30
0.0
 40
0.1
  1
5
 50
270.0
 72
     1
 11
10.97
 21
7.127
 31
0.0
100
AcDbText
 73
     3
  0
INSERT
  5
242
330
17
100
AcDbEntity
  8
0
 62
     4
100
AcDbBlockReference
  2
HoldDown
 10
11.6
 20
5.727
 30
0.0
  0
INSERT
  5
244
330
17
100
AcDbEntity
  8
0
 62
     4
100
AcDbBlockReference
  2
HoldDown
 10
13.188
 20
5.727
 30
0.0
  0
TEXT
  5
245
330
17
100
AcDbEntity
  8
Connessioni a trazione
100
AcDbText
 10
11.58809523809523
 20
5.677
 30
0.0
 40
0.1
  1
1
 72
     1
 11
11.6
 21
5.727
 31
0.0
100
AcDbText
 73
     2
  0
TEXT
  5
246
330
17
100
AcDbEntity
  8
Connessioni a trazione
100
AcDbText
 10
13.17609523809524
 20
5.677
 30
0.0
 40
0.1
  1
1
 72
     1
 11
13.188
 21
5.727
 31
0.0
100
AcDbText
 73
     2
  0
INSERT
  5
248
330
17
100
AcDbEntity
  8
0
 62
     5
100
AcDbBlockReference
  2
AngleBracket
 10
12.394
 20
5.417
 30
0.0
  0
TEXT
  5
249
330
17
100
AcDbEntity
  8
Connessioni a taglio
 62
     5
100
AcDbText
 10
12.36066666666667
 20
5.197
 30
0.0
 40
0.1
  1
3
 72
     1
 11
12.394
 21
5.297
 31
0.0
100
AcDbText
 73
     3
  0
INSERT
  5
24B
330
17
100
AcDbEntity
  8
0
 62
     4
100
AcDbBlockReference
  2
HoldDown
 10
16.49
 20
5.727
 30
0.0
  0
INSERT
  5
24D
330
17
100
AcDbEntity
  8
0
 62
     4
100
AcDbBlockReference
  2
HoldDown
 10
16.6
 20
5.727
 30
0.0
  0
TEXT
  5
24E
330
17
100
AcDbEntity
  8
Connessioni a trazione
100
AcDbText
 10
16.47809523809523
 20
5.677
 30
0.0
 40
0.1
  1
1
 72
     1
 11
16.49
 21
5.727
 31
0.0
100
AcDbText
 73
     2
  0
TEXT
  5
24F
330
17
100
AcDbEntity
  8
Connessioni a trazione
100
AcDbText
 10
16.58809523809524
 20
5.677
 30
0.0
 40
0.1
  1
1
 72
     1
 11
16.6
 21
5.727
 31
0.0
100
AcDbText
 73
     2
  0
INSERT
  5
251
330
17
100
AcDbEntity
  8
0
 62
     5
100
AcDbBlockReference
  2
AngleBracket
 10
16.545
 20
5.417
 30
0.0
  0
TEXT
  5
252
330
17
100
AcDbEntity
  8
Connessioni a taglio
 62
     5
100
AcDbText
 10
16.53309523809524
 20
5.197
 30
0.0
 40
0.1
  1
1
 72
     1
 11
16.545
 21
5.297
 31
0.0
100
AcDbText
 73
     3
  0
INSERT
  5
254
330
17
100
AcDbEntity
  8
0
 62
     4
100
AcDbBlockReference
  2
HoldDown
 10
9.099999999999999
 20
14.027
 30
0.0
  0
INSERT
  5
256
330
17
100
AcDbEntity
  8
0
 62
     4
100
AcDbBlockReference
  2
HoldDown
 10
12.6
 20
14.027
 30
0.0
  0
TEXT
  5
257
330
17
100
AcDbEntity
  8
Connessioni a trazione
100
AcDbText
 10
9.088095238095236
 20
13.977
 30
0.0
 40
0.1
  1
1
 72
     1
 11
9.099999999999999
 21
14.027
 31
0.0
100
AcDbText
 73
     2
  0
TEXT
  5
258
330
17
100
AcDbEntity
  8
Connessioni a trazione
100
AcDbText
 10
12.58809523809524
 20
13.977
 30
0.0
 40
0.1
  1
1
 72
     1
 11
12.6
 21
14.027
 31
0.0
100
AcDbText
 73
     2
  0
INSERT
  5
25A
330
17
100
AcDbEntity
  8
0
 62
     5
100
AcDbBlockReference
  2
AngleBracket
 10
10.85
 20
13.717
 30
0.0
  0
TEXT
  5
25B
330
17
100
AcDbEntity
  8
Connessioni a taglio
 62
     5
100
AcDbText
 10
10.81666666666666
 20
13.497
 30
0.0
 40
0.1
  1
7
 72
     1
 11
10.85
 21
13.597
 31
0.0
100
AcDbText
 73
     3
  0
INSERT
  5
25D
330
17
100
AcDbEntity
  8
0
 62
     4
100
AcDbBlockReference
  2
HoldDown
 10
14.6
 20
14.027
 30
0.0
  0
INSERT
  5
25F
330
17
100
AcDbEntity
  8
0
 62
     4
100
AcDbBlockReference
  2
HoldDown
 10
16.6
 20
14.027
 30
0.0
  0
TEXT
  5
260
330
17
100
AcDbEntity
  8
Connessioni a trazione
100
AcDbText
 10
14.58809523809524
 20
13.977
 30
0.0
 40
0.1
  1
1
 72
     1
 11
14.6
 21
14.027
 31
0.0
100
AcDbText
 73
     2
  0
TEXT
  5
261
330
17
100
AcDbEntity
  8
Connessioni a trazione
100
AcDbText
 10
16.58809523809524
 20
13.977
 30
0.0
 40
0.1
  1
1
 72
     1
 11
16.6
 21
14.027
 31
0.0
100
AcDbText
 73
     2
  0
INSERT
  5
263
330
17
100
AcDbEntity
  8
0
 62
     5
100
AcDbBlockReference
  2
AngleBracket
 10
15.6
 20
13.717
 30
0.0
  0
TEXT
  5
264
330
17
100
AcDbEntity
  8
Connessioni a taglio
 62
     5
100
AcDbText
 10
15.56428571428571
 20
13.497
 30
0.0
 40
0.1
  1
4
 72
     1
 11
15.6
 21
13.597
 31
0.0
100
AcDbText
 73
     3
  0
INSERT
  5
266
330
17
100
AcDbEntity
  8
0
 62
     6
100
AcDbBlockReference
  2
HoldDown
 10
16.8
 20
12.727
 30
0.0
 50
90.0
  0
INSERT
  5
268
330
17
100
AcDbEntity
  8
0
 62
     6
100
AcDbBlockReference
  2
HoldDown
 10
16.8
 20
13.827
 30
0.0
 50
90.0
  0
TEXT
  5
269
330
17
100
AcDbEntity
  8
Connessioni a trazione
100
AcDbText
 10
16.78809523809524
 20
12.677
 30
0.0
 40
0.1
  1
1
 72
     1
 11
16.8
 21
12.727
 31
0.0
100
AcDbText
 73
     2
  0
TEXT
  5
26A
330
17
100
AcDbEntity
  8
Connessioni a trazione
100
AcDbText
 10
16.78809523809524
 20
13.777
 30
0.0
 40
0.1
  1
1
 72
     1
 11
16.8
 21
13.827
 31
0.0
100
AcDbText
 73
     2
  0
INSERT
  5
26C
330
17
100
AcDbEntity
  8
0
 62
     5
100
AcDbBlockReference
  2
AngleBracket
 10
16.49
 20
13.277
 30
0.0
 50
270.0
  0
TEXT
  5
26D
330
17
100
AcDbEntity
  8
Connessioni a taglio
 62
     5
100
AcDbText
 10
16.27
 20
13.31033333333333
 30
0.0
 40
0.1
  1
3
 50
270.0
 72
     1
 11
16.37
 21
13.277
 31
0.0
100
AcDbText
 73
     3
  0
INSERT
  5
26F
330
17
100
AcDbEntity
  8
0
 62
     6
100
AcDbBlockReference
  2
HoldDown
 10
6.4
 20
5.927
 30
0.0
 50
90.0
  0
INSERT
  5
271
330
17
100
AcDbEntity
  8
0
 62
     6
100
AcDbBlockReference
  2
HoldDown
 10
6.4
 20
8.326999999999999
 30
0.0
 50
90.0
  0
TEXT
  5
272
330
17
100
AcDbEntity
  8
Connessioni a trazione
100
AcDbText
 10
6.388095238095238
 20
5.877
 30
0.0
 40
0.1
  1
1
 72
     1
 11
6.4
 21
5.927
 31
0.0
100
AcDbText
 73
     2
  0
TEXT
  5
273
330
17
100
AcDbEntity
  8
Connessioni a trazione
100
AcDbText
 10
6.388095238095238
 20
8.276999999999999
 30
0.0
 40
0.1
  1
1
 72
     1
 11
6.4
 21
8.326999999999999
 31
0.0
100
AcDbText
 73
     2
  0
INSERT
  5
275
330
17
100
AcDbEntity
  8
0
 62
     5
100
AcDbBlockReference
  2
AngleBracket
 10
6.089999999999999
 20
7.127
 30
0.0
 50
270.0
  0
TEXT
  5
276
330
17
100
AcDbEntity
  8
Connessioni a taglio
 62
     5
100
AcDbText
 10
5.87
 20
7.160333333333333
 30
0.0
 40
0.1
  1
5
 50
270.0
 72
     1
 11
5.969999999999999
 21
7.127
 31
0.0
100
AcDbText
 73
     3
  0
INSERT
  5
278
330
17
100
AcDbEntity
  8
0
 62
     4
100
AcDbBlockReference
  2
HoldDown
 10
1.199999999999999
 20
14.027
 30
0.0
  0
INSERT
  5
27A
330
17
100
AcDbEntity
  8
0
 62
     4
100
AcDbBlockReference
  2
HoldDown
 10
3.2
 20
14.027
 30
0.0
  0
TEXT
  5
27B
330
17
100
AcDbEntity
  8
Connessioni a trazione
100
AcDbText
 10
1.188095238095238
 20
13.977
 30
0.0
 40
0.1
  1
1
 72
     1
 11
1.199999999999999
 21
14.027
 31
0.0
100
AcDbText
 73
     2
  0
TEXT
  5
27C
330
17
100
AcDbEntity
  8
Connessioni a trazione
100
AcDbText
 10
3.188095238095238
 20
13.977
 30
0.0
 40
0.1
  1
1
 72
     1
 11
3.2
 21
14.027
 31
0.0
100
AcDbText
 73
     2
  0
INSERT
  5
27E
330
17
100
AcDbEntity
  8
0
 62
     5
100
AcDbBlockReference
  2
AngleBracket
 10
2.2
 20
13.717
 30
0.0
  0
TEXT
  5
27F
330
17
100
AcDbEntity
  8
Connessioni a taglio
 62
     5
100
AcDbText
 10
2.164285714285714
 20
13.497
 30
0.0
 40
0.1
  1
4
 72
     1
 11
2.2
 21
13.597
 31
0.0
100
AcDbText
 73
     3
  0
INSERT
  5
281
330
17
100
AcDbEntity
  8
0
 62
     4
100
AcDbBlockReference
  2
HoldDown
 10
5.2
 20
14.027
 30
0.0
  0
INSERT
  5
283
330
17
100
AcDbEntity
  8
0
 62
     4
100
AcDbBlockReference
  2
HoldDown
 10
8.699999999999999
 20
14.027
 30
0.0
  0
TEXT
  5
284
330
17
100
AcDbEntity
  8
Connessioni a trazione
100
AcDbText
 10
5.188095238095238
 20
13.977
 30
0.0
 40
0.1
  1
1
 72
     1
 11
5.2
 21
14.027
 31
0.0
100
AcDbText
 73
     2
  0
TEXT
  5
285
330
17
100
AcDbEntity
  8
Connessioni a trazione
100
AcDbText
 10
8.688095238095236
 20
13.977
 30
0.0
 40
0.1
  1
1
 72
     1
 11
8.699999999999999
 21
14.027
 31
0.0
100
AcDbText
 73
     2
  0
INSERT
  5
287
330
17
100
AcDbEntity
  8
0
 62
     5
100
AcDbBlockReference
  2
AngleBracket
 10
6.95
 20
13.717
 30
0.0
  0
TEXT
  5
288
330
17
100
AcDbEntity
  8
Connessioni a taglio
 62
     5
100
AcDbText
 10
6.916666666666666
 20
13.497
 30
0.0
 40
0.1
  1
7
 72
     1
 11
6.95
 21
13.597
 31
0.0
100
AcDbText
 73
     3
  0
INSERT
  5
28A
330
17
100
AcDbEntity
  8
0
 62
     1
100
AcDbBlockReference
  2
HoldDown
 10
-3.35315798208785
 20
-1.858406376632302
 30
0.0
  0
TEXT
  5
28B
330
17
100
AcDbEntity
  8
0
100
AcDbText
 10
-3.369348458278328
 20
-1.918406376632302
 30
0.0
 40
0.1
  1
n
 72
     1
 11
-3.343157982087852
 21
-1.818406376632302
 31
0.0
100
AcDbText
 73
     3
  0
MTEXT
  5
28C
330
17
100
AcDbEntity
  8
0
100
AcDbMText
 10
-3.55315798208785
 20
-2.158406376632302
 30
0.0
 40
0.06
 41
5.4
 46
0.0
 71
     1
 72
     5
  1
n = numero ancoraggi
 73
     1
 44
1.0
1001
ACAD
1000
MTEXTBEGIN
1070
    73
1070
     1
1070
    44
1040
1.0
1070
    74
1070
     0
1000
MTEXTEND
  0
MTEXT
  5
28D
330
17
100
AcDbEntity
  8
0
100
AcDbMText
 10
-3.55315798208785
 20
-2.558406376632302
 30
0.0
 40
0.2
 41
5.4
 46
0.0
 71
     1
 72
     5
  1
HOLD DOWN
 73
     1
 44
1.0
1001
ACAD
1000
MTEXTBEGIN
1070
    73
1070
     1
1070
    44
1040
1.0
1070
    74
1070
     0
1000
MTEXTEND
  0
MTEXT
  5
28E
330
17
100
AcDbEntity
  8
0
100
AcDbMText
 10
-3.55315798208785
 20
-3.158406376632302
 30
0.0
 40
0.1
 41
5.4
 46
0.0
 71
     1
 72
     5
  1
ANCORAGGIO A TRAZIONE\PAncoraggio: "WHT 440"\PFissaggio alla parete: 20 Chiodi Anker 4,0 X 40\PFissaggio  al calcestruzzo: M16 5.8
 73
     1
 44
1.0
1001
ACAD
1000
MTEXTBEGIN
1070
    73
1070
     1
1070
    44
1040
1.0
1070
    74
1070
     0
1000
MTEXTEND
  0
INSERT
  5
290
330
17
100
AcDbEntity
  8
0
 62
     3
100
AcDbBlockReference
  2
HoldDown
 10
2.646842017912149
 20
-1.858406376632302
 30
0.0
  0
TEXT
  5
291
330
17
100
AcDbEntity
  8
0
100
AcDbText
 10
2.630651541721673
 20
-1.918406376632302
 30
0.0
 40
0.1
  1
n
 72
     1
 11
2.656842017912149
 21
-1.818406376632302
 31
0.0
100
AcDbText
 73
     3
  0
MTEXT
  5
292
330
17
100
AcDbEntity
  8
0
100
AcDbMText
 10
2.446842017912149
 20
-2.158406376632302
 30
0.0
 40
0.06
 41
5.4
 46
0.0
 71
     1
 72
     5
  1
n = numero ancoraggi
 73
     1
 44
1.0
1001
ACAD
1000
MTEXTBEGIN
1070
    73
1070
     1
1070
    44
1040
1.0
1070
    74
1070
     0
1000
MTEXTEND
  0
MTEXT
  5
293
330
17
100
AcDbEntity
  8
0
100
AcDbMText
 10
2.446842017912149
 20
-2.558406376632302
 30
0.0
 40
0.2
 41
5.4
 46
0.0
 71
     1
 72
     5
  1
HOLD DOWN
 73
     1
 44
1.0
1001
ACAD
1000
MTEXTBEGIN
1070
    73
1070
     1
1070
    44
1040
1.0
1070
    74
1070
     0
1000
MTEXTEND
  0
MTEXT
  5
294
330
17
100
AcDbEntity
  8
0
100
AcDbMText
 10
2.446842017912149
 20
-3.158406376632302
 30
0.0
 40
0.1
 41
5.4
 46
0.0
 71
     1
 72
     5
  1
ANCORAGGIO A TRAZIONE\PAncoraggio: "WHT 620"\PFissaggio alla parete: 52 Chiodi Anker 4,0 X 60\PFissaggio  al calcestruzzo: M20 5.8
 73
     1
 44
1.0
1001
ACAD
1000
MTEXTBEGIN
1070
    73
1070
     1
1070
    44
1040
1.0
1070
    74
1070
     0
1000
MTEXTEND
  0
INSERT
  5
296
330
17
100
AcDbEntity
  8
0
 62
     4
100
AcDbBlockReference
  2
HoldDown
 10
8.646842017912149
 20
-1.858406376632302
 30
0.0
  0
TEXT
  5
297
330
17
100
AcDbEntity
  8
0
100
AcDbText
 10
8.630651541721672
 20
-1.918406376632302
 30
0.0
 40
0.1
  1
n
 72
     1
 11
8.656842017912149
 21
-1.818406376632302
 31
0.0
100
AcDbText
 73
     3
  0
MTEXT
  5
298
330
17
100
AcDbEntity
  8
0
100
AcDbMText
 10
8.44684201791215
 20
-2.158406376632302
 30
0.0
 40
0.06
 41
5.4
 46
0.0
 71
     1
 72
     5
  1
n = numero ancoraggi
 73
     1
 44
1.0
1001
ACAD
1000
MTEXTBEGIN
1070
    73
1070
     1
1070
    44
1040
1.0
1070
    74
1070
     0
1000
MTEXTEND
  0
MTEXT
  5
299
330
17
100
AcDbEntity
  8
0
100
AcDbMText
 10
8.44684201791215
 20
-2.558406376632302
 30
0.0
 40
0.2
 41
5.4
 46
0.0
 71
     1
 72
     5
  1
NASTRO FORATO
 73
     1
 44
1.0
1001
ACAD
1000
MTEXTBEGIN
1070
    73
1070
     1
1070
    44
1040
1.0
1070
    74
1070
     0
1000
MTEXTEND
  0
MTEXT
  5
29A
330
17
100
AcDbEntity
  8
0
100
AcDbMText
 10
8.44684201791215
 20
-3.158406376632302
 30
0.0
 40
0.1
 41
5.4
 46
0.0
 71
     1
 72
     5
  1
ANCORAGGIO A TRAZIONE\PAncoraggio: "Piastra forata 60x600 sp. 1,5 mm "\PFissaggio superiore: 12 ANKER 4,0 x 60\PFissaggio inferiore: 12 ANKER 4,0 x 60
 73
     1
 44
1.0
1001
ACAD
1000
MTEXTBEGIN
1070
    73
1070
     1
1070
    44
1040
1.0
1070
    74
1070
     0
1000
MTEXTEND
  0
INSERT
  5
29C
330
17
100
AcDbEntity
  8
0
 62
     6
100
AcDbBlockReference
  2
HoldDown
 10
14.64684201791215
 20
-1.858406376632302
 30
0.0
  0
TEXT
  5
29D
330
17
100
AcDbEntity
  8
0
100
AcDbText
 10
14.63065154172167
 20
-1.918406376632302
 30
0.0
 40
0.1
  1
n
 72
     1
 11
14.65684201791215
 21
-1.818406376632302
 31
0.0
100
AcDbText
 73
     3
  0
MTEXT
  5
29E
330
17
100
AcDbEntity
  8
0
100
AcDbMText
 10
14.44684201791215
 20
-2.158406376632302
 30
0.0
 40
0.06
 41
5.4
 46
0.0
 71
     1
 72
     5
  1
n = numero ancoraggi
 73
     1
 44
1.0
1001
ACAD
1000
MTEXTBEGIN
1070
    73
1070
     1
1070
    44
1040
1.0
1070
    74
1070
     0
1000
MTEXTEND
  0
MTEXT
  5
29F
330
17
100
AcDbEntity
  8
0
100
AcDbMText
 10
14.44684201791215
 20
-2.558406376632302
 30
0.0
 40
0.2
 41
5.4
 46
0.0
 71
     1
 72
     5
  1
DOPPIO HOLD DOWN
 73
     1
 44
1.0
1001
ACAD
1000
MTEXTBEGIN
1070
    73
1070
     1
1070
    44
1040
1.0
1070
    74
1070
     0
1000
MTEXTEND
  0
MTEXT
  5
2A0
330
17
100
AcDbEntity
  8
0
100
AcDbMText
 10
14.44684201791215
 20
-3.158406376632302
 30
0.0
 40
0.1
 41
5.4
 46
0.0
 71
     1
 72
     5
  1
ANCORAGGIO A TRAZIONE\PAncoraggio: "WHT 540"\PFissaggio alla parete: 42 Chiodi Anker 4,0 X 60\PBarra filettata: M16 5.8
 73
     1
 44
1.0
1001
ACAD
1000
MTEXTBEGIN
1070
    73
1070
     1
1070
    44
1040
1.0
1070
    74
1070
     0
1000
MTEXTEND
  0
INSERT
  5
2A2
330
17
100
AcDbEntity
  8
0
 62
     2
100
AcDbBlockReference
  2
AngleBracket
 10
20.64684201791215
 20
-1.808406376632302
 30
0.0
  0
TEXT
  5
2A3
330
17
100
AcDbEntity
  8
0
 62
     2
100
AcDbText
 10
20.65065154172168
 20
-2.008406376632302
 30
0.0
 40
0.1
  1
n
 72
     1
 11
20.67684201791215
 21
-1.958406376632302
 31
0.0
100
AcDbText
 73
     2
  0
INSERT
  5
2A5
330
17
100
AcDbEntity
  8
0
 62
     2
100
AcDbBlockReference
  2
AngleBracket
 10
21.44684201791215
 20
-1.808406376632302
 30
0.0
  0
TEXT
  5
2A6
330
17
100
AcDbEntity
  8
0
 62
     2
100
AcDbText
 10
21.36255630362644
 20
-2.008406376632302
 30
0.0
 40
0.1
  1
2xn
 72
     1
 11
21.47684201791215
 21
-1.958406376632302
 31
0.0
100
AcDbText
 73
     2
  0
MTEXT
  5
2A7
330
17
100
AcDbEntity
  8
0
100
AcDbMText
 10
20.44684201791215
 20
-2.158406376632302
 30
0.0
 40
0.06
 41
5.4
 46
0.0
 71
     1
 72
     5
  1
n = numero ancoraggi su un solo lato della parete\P2xn = numero ancoraggi sui due lati della parete
 73
     1
 44
1.0
1001
ACAD
1000
MTEXTBEGIN
1070
    73
1070
     1
1070
    44
1040
1.0
1070
    74
1070
     0
1000
MTEXTEND
  0
MTEXT
  5
2A8
330
17
100
AcDbEntity
  8
0
100
AcDbMText
 10
20.44684201791215
 20
-2.558406376632302
 30
0.0
 40
0.2
 41
5.4
 46
0.0
 71
     1
 72
     5
  1
ANGOLARE CON TASSELLI
 73
     1
 44
1.0
1001
ACAD
1000
MTEXTBEGIN
1070
    73
1070
     1
1070
    44
1040
1.0
1070
    74
1070
     0
1000
MTEXTEND
  0
MTEXT
  5
2A9
330
17
100
AcDbEntity
  8
0
100
AcDbMText
 10
20.44684201791215
 20
-3.158406376632302
 30
0.0
 40
0.1
 41
5.4
 46
0.0
 71
     1
 72
     5
  1
ANCORAGGIO A TAGLIO\PAncoraggio: "Titan TCN 200"\PFissaggio alla parete: 30 Chiodi Anker 4,0 X 60\PFissaggio al calcestruzzo: 2 M12 5.8
 73
     1
 44
1.0
1001
ACAD
1000
MTEXTBEGIN
1070
    73
1070
     1
1070
    44
1040
1.0
1070
    74
1070
     0
1000
MTEXTEND
  0
INSERT
  5
2AB
330
17
100
AcDbEntity
  8
0
 62
     5
100
AcDbBlockReference
  2
AngleBracket
 10
26.64684201791215
 20
-1.808406376632302
 30
0.0
  0
TEXT
  5
2AC
330
17
100
AcDbEntity
  8
0
 62
     5
100
AcDbText
 10
26.65065154172168
 20
-2.008406376632302
 30
0.0
 40
0.1
  1
n
 72
     1
 11
26.67684201791215
 21
-1.958406376632302
 31
0.0
100
AcDbText
 73
     2
  0
INSERT
  5
2AE
330
17
100
AcDbEntity
  8
0
 62
     5
100
AcDbBlockReference
  2
AngleBracket
 10
27.44684201791215
 20
-1.808406376632302
 30
0.0
  0
TEXT
  5
2AF
330
17
100
AcDbEntity
  8
0
 62
     5
100
AcDbText
 10
27.36255630362644
 20
-2.008406376632302
 30
0.0
 40
0.1
  1
2xn
 72
     1
 11
27.47684201791215
 21
-1.958406376632302
 31
0.0
100
AcDbText
 73
     2
  0
MTEXT
  5
2B0
330
17
100
AcDbEntity
  8
0
100
AcDbMText
 10
26.44684201791215
 20
-2.158406376632302
 30
0.0
 40
0.06
 41
5.4
 46
0.0
 71
     1
 72
     5
  1
n = numero ancoraggi su un solo lato della parete\P2xn = numero ancoraggi sui due lati della parete
 73
     1
 44
1.0
1001
ACAD
1000
MTEXTBEGIN
1070
    73
1070
     1
1070
    44
1040
1.0
1070
    74
1070
     0
1000
MTEXTEND
  0
MTEXT
  5
2B1
330
17
100
AcDbEntity
  8
0
100
AcDbMText
 10
26.44684201791215
 20
-2.558406376632302
 30
0.0
 40
0.2
 41
5.4
 46
0.0
 71
     1
 72
     5
  1
PIASTRA FORATA
 73
     1
 44
1.0
1001
ACAD
1000
MTEXTBEGIN
1070
    73
1070
     1
1070
    44
1040
1.0
1070
    74
1070
     0
1000
MTEXTEND
  0
MTEXT
  5
2B2
330
17
100
AcDbEntity
  8
0
100
AcDbMText
 10
26.44684201791215
 20
-3.158406376632302
 30
0.0
 40
0.1
 41
5.4
 46
0.0
 71
     1
 72
     5
  1
ANCORAGGIO A TAGLIO\PAncoraggio: "Piastra forata 200x300 sp. 2 mm "\PFissaggio superiore: 8 ANKER 4,0 x 60\PFissaggio inferiore: 8 ANKER 4,0 x 60
 73
     1
 44
1.0
1001
ACAD
1000
MTEXTBEGIN
1070
    73
1070
     1
1070
    44
1040
1.0
1070
    74
1070
     0
1000
MTEXTEND
  0
VIEWPORT
  5
2B7
330
2B3
100
AcDbEntity
 67
     1
  8
0
100
AcDbViewport
 10
0.0
 20
0.0
 30
0.0
 40
297.0
 41
210.0
 68
     1
 69
     1
 12
50.0
 22
100.0
 13
0.0
 23
0.0
 14
10.0
 24
10.0
 15
10.0
 25
10.0
 16
0.0
 26
0.0
 36
1.0
 17
0.0
 27
0.0
 37
0.0
 42
50.0
 43
0.0
 44
0.0
 45
250.0
 50
0.0
 51
0.0
 72
  1000
 90
    32800
  1

281
     0
 71
     1
 74
     0
110
0.0
120
0.0
130
0.0
111
1.0
121
0.0
131
0.0
112
0.0
122
1.0
132
0.0
 79
     0
146
0.0
170
     0
 61
     5
292
     1
282
     0
141
0.0
142
0.0
 63
   256
  0
ENDSEC
  0
SECTION
  2
OBJECTS
  0
DICTIONARY
  5
2BA
330
0
100
AcDbDictionary
281
     1
  3
ACAD_COLOR
350
2EC
  3
ACAD_GROUP
350
2BB
  3
ACAD_LAYOUT
350
2BC
  3
ACAD_MATERIAL
350
2E8
  3
ACAD_MLEADERSTYLE
350
2EF
  3
ACAD_MLINESTYLE
350
2BD
  3
ACAD_PLOTSETTINGS
350
2F1
  3
ACAD_PLOTSTYLENAME
350
2E6
  3
ACAD_SCALELIST
350
2C4
  3
ACAD_TABLESTYLE
350
2ED
  3
ACDB_RECOMPOSE_DATA
350
307
  3
ACDBHEADERROUNDTRIPXREC
350
304
  3
AcDbVariableDictionary
350
2FC
  0
DICTIONARY
  5
2EC
102
{ACAD_REACTORS
330
2BA
102
}
330
2BA
100
AcDbDictionary
281
     1
  0
DICTIONARY
  5
2BB
330
2BA
100
AcDbDictionary
281
     1
  0
DICTIONARY
  5
2BC
330
2BA
100
AcDbDictionary
281
     1
  3
Layout1
350
2B8
  3
Model
350
1B
  0
DICTIONARY
  5
2E8
102
{ACAD_REACTORS
330
2BA
102
}
330
2BA
100
AcDbDictionary
281
     1
  3
ByBlock
350
2EA
  3
ByLayer
350
2E9
  3
Global
350
2EB
  0
DICTIONARY
  5
2EF
102
{ACAD_REACTORS
330
2BA
102
}
330
2BA
100
AcDbDictionary
281
     1
  3
Standard
350
2F0
  0
DICTIONARY
  5
2BD
330
2BA
100
AcDbDictionary
281
     1
  3
Standard
350
16
  0
DICTIONARY
  5
2F1
102
{ACAD_REACTORS
330
2BA
102
}
330
2BA
100
AcDbDictionary
281
     1
  0
ACDBDICTIONARYWDFLT
  5
2E6
102
{ACAD_REACTORS
330
2BA
102
}
330
2BA
100
AcDbDictionary
281
     1
  3
Normal
350
2E7
100
AcDbDictionaryWithDefault
340
2E7
  0
DICTIONARY
  5
2C4
102
{ACAD_REACTORS
330
2BA
102
}
330
2BA
100
AcDbDictionary
281
     1
  3
A0
350
2C5
  3
A1
350
2C6
  3
A2
350
2C7
  3
A3
350
2C8
  3
A4
350
2C9
  3
A5
350
2CA
  3
A6
350
2CB
  3
A7
350
2CC
  3
A8
350
2CD
  3
A9
350
2CE
  3
B0
350
2CF
  3
B1
350
2D0
  3
B2
350
2D1
  3
B3
350
2D2
  3
B4
350
2D3
  3
B5
350
2D4
  3
B6
350
2D5
  3
B7
350
2D6
  3
B8
350
2D7
  3
B9
350
2D8
  3
C0
350
2D9
  3
C1
350
2DA
  3
C2
350
2DB
  3
C3
350
2DC
  3
C4
350
2DD
  3
C5
350
2DE
  3
C6
350
2DF
  3
C7
350
2E0
  3
C8
350
2E1
  3
C9
350
2E2
  3
D0
350
2E3
  3
D1
350
2E4
  3
D2
350
2E5
  0
DICTIONARY
  5
2ED
102
{ACAD_REACTORS
330
2BA
102
}
330
2BA
100
AcDbDictionary
281
     1
  3
Standard
350
2EE
  0
XRECORD
  5
307
102
{ACAD_REACTORS
330
2BA
102
}
330
2BA
100
AcDbXrecord
280
     1
 90
        1
330
2EE
  0
DICTIONARY
  5
304
102
{ACAD_REACTORS
330
2BA
102
}
330
2BA
100
AcDbDictionary
281
     1
  0
DICTIONARY
  5
2FC
102
{ACAD_REACTORS
330
2BA
102
}
330
2BA
100
AcDbDictionary
281
     1
  3
CMLEADERSTYLE
350
2FE
  3
CTABLESTYLE
350
2FD
  0
LAYOUT
  5
2B8
330
2BC
100
AcDbPlotSettings
  1

  2
none_device
  4
ISO_A4_(210.00_x_297.00_MM)
  6

 40
7.5
 41
20.0
 42
7.5
 43
20.0
 44
210.0
 45
297.0
 46
0.0
 47
0.0
 48
0.0
 49
0.0
140
0.0
141
0.0
142
1.0
143
1.0
 70
   688
 72
     1
 73
     1
 74
     5
  7

 75
    16
147
1.0
 76
     0
 77
     2
 78
   300
148
0.0
149
0.0
100
AcDbLayout
  1
Layout1
 70
     1
 71
     1
 10
0.0
 20
0.0
 11
12.0
 21
9.0
 12
0.0
 22
0.0
 32
0.0
 14
1.000000000000000E+20
 24
1.000000000000000E+20
 34
1.000000000000000E+20
 15
-1.000000000000000E+20
 25
-1.000000000000000E+20
 35
-1.000000000000000E+20
146
0.0
 13
0.0
 23
0.0
 33
0.0
 16
1.0
 26
0.0
 36
0.0
 17
0.0
 27
1.0
 37
0.0
 76
     0
330
2B3
331
2B7
  0
LAYOUT
  5
1B
330
2BC
100
AcDbPlotSettings
  1

  2
none_device
  4
ISO_A4_(210.00_x_297.00_MM)
  6

 40
7.5
 41
20.0
 42
7.5
 43
20.0
 44
210.0
 45
297.0
 46
0.0
 47
0.0
 48
0.0
 49
0.0
140
0.0
141
0.0
142
1.0
143
1.0
 70
 11952
 72
     1
 73
     1
 74
     5
  7

 75
    16
147
1.0
 76
     0
 77
     2
 78
   300
148
0.0
149
0.0
100
AcDbLayout
  1
Model
 70
     1
 71
     0
 10
-20.0
 20
-7.5
 11
277.0
 21
202.5
 12
0.0
 22
0.0
 32
0.0
 14
25.7
 24
19.5
 34
0.0
 15
231.3
 25
175.5
 35
0.0
146
0.0
 13
0.0
 23
0.0
 33
0.0
 16
1.0
 26
0.0
 36
0.0
 17
0.0
 27
1.0
 37
0.0
 76
     0
330
17
  0
MATERIAL
  5
2EA
102
{ACAD_REACTORS
330
2E8
102
}
330
2E8
100
AcDbMaterial
  1
ByBlock
  2

  0
MATERIAL
  5
2E9
102
{ACAD_REACTORS
330
2E8
102
}
330
2E8
100
AcDbMaterial
  1
ByLayer
  2

  0
MATERIAL
  5
2EB
102
{ACAD_REACTORS
330
2E8
102
}
330
2E8
100
AcDbMaterial
  1
Global
  2

  0
MLEADERSTYLE
  5
2F0
102
{ACAD_REACTORS
330
2EF
102
}
330
2EF
100
AcDbMLeaderStyle
179
     2
170
     2
171
     1
172
     0
 90
        2
 40
0.0
 41
0.0
173
     1
 91
-1056964608
340
12
 92
       -2
290
     1
 42
0.09
291
     1
 43
0.36
  3
Standard
341
0
 44
0.18
300

342
13
174
     1
178
     1
175
     1
176
     0
 93
-1056964608
 45
0.18
292
     0
297
     0
 46
0.18
343
0
 94
-1056964608
 47
1.0
 49
1.0
140
1.0
293
     1
141
0.0
294
     1
177
     0
142
1.0
295
     0
296
     0
143
0.125
271
     0
272
     9
273
     9
  0
MLINESTYLE
  5
16
330
2BD
100
AcDbMlineStyle
  2
STANDARD
 70
     0
  3

 62
   256
 51
90.0
 52
90.0
 71
     2
 49
0.5
 62
   256
  6
BYLAYER
 49
-0.5
 62
   256
  6
BYLAYER
  0
ACDBPLACEHOLDER
  5
2E7
102
{ACAD_REACTORS
330
2E6
102
}
330
2E6
  0
SCALE
  5
2C5
102
{ACAD_REACTORS
330
2C4
102
}
330
2C4
100
AcDbScale
 70
     0
300
1:1
140
1.0
141
1.0
290
     1
  0
SCALE
  5
2C6
102
{ACAD_REACTORS
330
2C4
102
}
330
2C4
100
AcDbScale
 70
     0
300
1:2
140
1.0
141
2.0
290
     0
  0
SCALE
  5
2C7
102
{ACAD_REACTORS
330
2C4
102
}
330
2C4
100
AcDbScale
 70
     0
300
1:4
140
1.0
141
4.0
290
     0
  0
SCALE
  5
2C8
102
{ACAD_REACTORS
330
2C4
102
}
330
2C4
100
AcDbScale
 70
     0
300
1:5
140
1.0
141
5.0
290
     0
  0
SCALE
  5
2C9
102
{ACAD_REACTORS
330
2C4
102
}
330
2C4
100
AcDbScale
 70
     0
300
1:8
140
1.0
141
8.0
290
     0
  0
SCALE
  5
2CA
102
{ACAD_REACTORS
330
2C4
102
}
330
2C4
100
AcDbScale
 70
     0
300
1:10
140
1.0
141
10.0
290
     0
  0
SCALE
  5
2CB
102
{ACAD_REACTORS
330
2C4
102
}
330
2C4
100
AcDbScale
 70
     0
300
1:16
140
1.0
141
16.0
290
     0
  0
SCALE
  5
2CC
102
{ACAD_REACTORS
330
2C4
102
}
330
2C4
100
AcDbScale
 70
     0
300
1:20
140
1.0
141
20.0
290
     0
  0
SCALE
  5
2CD
102
{ACAD_REACTORS
330
2C4
102
}
330
2C4
100
AcDbScale
 70
     0
300
1:30
140
1.0
141
30.0
290
     0
  0
SCALE
  5
2CE
102
{ACAD_REACTORS
330
2C4
102
}
330
2C4
100
AcDbScale
 70
     0
300
1:40
140
1.0
141
40.0
290
     0
  0
SCALE
  5
2CF
102
{ACAD_REACTORS
330
2C4
102
}
330
2C4
100
AcDbScale
 70
     0
300
1:50
140
1.0
141
50.0
290
     0
  0
SCALE
  5
2D0
102
{ACAD_REACTORS
330
2C4
102
}
330
2C4
100
AcDbScale
 70
     0
300
1:100
140
1.0
141
100.0
290
     0
  0
SCALE
  5
2D1
102
{ACAD_REACTORS
330
2C4
102
}
330
2C4
100
AcDbScale
 70
     0
300
2:1
140
2.0
141
1.0
290
     0
  0
SCALE
  5
2D2
102
{ACAD_REACTORS
330
2C4
102
}
330
2C4
100
AcDbScale
 70
     0
300
4:1
140
4.0
141
1.0
290
     0
  0
SCALE
  5
2D3
102
{ACAD_REACTORS
330
2C4
102
}
330
2C4
100
AcDbScale
 70
     0
300
8:1
140
8.0
141
1.0
290
     0
  0
SCALE
  5
2D4
102
{ACAD_REACTORS
330
2C4
102
}
330
2C4
100
AcDbScale
 70
     0
300
10:1
140
10.0
141
1.0
290
     0
  0
SCALE
  5
2D5
102
{ACAD_REACTORS
330
2C4
102
}
330
2C4
100
AcDbScale
 70
     0
300
100:1
140
100.0
141
1.0
290
     0
  0
SCALE
  5
2D6
102
{ACAD_REACTORS
330
2C4
102
}
330
2C4
100
AcDbScale
 70
     0
300
1/128" = 1'-0"
140
0.0078125
141
12.0
290
     0
  0
SCALE
  5
2D7
102
{ACAD_REACTORS
330
2C4
102
}
330
2C4
100
AcDbScale
 70
     0
300
1/64" = 1'-0"
140
0.015625
141
12.0
290
     0
  0
SCALE
  5
2D8
102
{ACAD_REACTORS
330
2C4
102
}
330
2C4
100
AcDbScale
 70
     0
300
1/32" = 1'-0"
140
0.03125
141
12.0
290
     0
  0
SCALE
  5
2D9
102
{ACAD_REACTORS
330
2C4
102
}
330
2C4
100
AcDbScale
 70
     0
300
1/16" = 1'-0"
140
0.0625
141
12.0
290
     0
  0
SCALE
  5
2DA
102
{ACAD_REACTORS
330
2C4
102
}
330
2C4
100
AcDbScale
 70
     0
300
3/32" = 1'-0"
140
0.09375
141
12.0
290
     0
  0
SCALE
  5
2DB
102
{ACAD_REACTORS
330
2C4
102
}
330
2C4
100
AcDbScale
 70
     0
300
1/8" = 1'-0"
140
0.125
141
12.0
290
     0
  0
SCALE
  5
2DC
102
{ACAD_REACTORS
330
2C4
102
}
330
2C4
100
AcDbScale
 70
     0
300
3/16" = 1'-0"
140
0.1875
141
12.0
290
     0
  0
SCALE
  5
2DD
102
{ACAD_REACTORS
330
2C4
102
}
330
2C4
100
AcDbScale
 70
     0
300
1/4" = 1'-0"
140
0.25
141
12.0
290
     0
  0
SCALE
  5
2DE
102
{ACAD_REACTORS
330
2C4
102
}
330
2C4
100
AcDbScale
 70
     0
300
3/8" = 1'-0"
140
0.375
141
12.0
290
     0
  0
SCALE
  5
2DF
102
{ACAD_REACTORS
330
2C4
102
}
330
2C4
100
AcDbScale
 70
     0
300
1/2" = 1'-0"
140
0.5
141
12.0
290
     0
  0
SCALE
  5
2E0
102
{ACAD_REACTORS
330
2C4
102
}
330
2C4
100
AcDbScale
 70
     0
300
3/4" = 1'-0"
140
0.75
141
12.0
290
     0
  0
SCALE
  5
2E1
102
{ACAD_REACTORS
330
2C4
102
}
330
2C4
100
AcDbScale
 70
     0
300
1" = 1'-0"
140
1.0
141
12.0
290
     0
  0
SCALE
  5
2E2
102
{ACAD_REACTORS
330
2C4
102
}
330
2C4
100
AcDbScale
 70
     0
300
1-1/2" = 1'-0"
140
1.5
141
12.0
290
     0
  0
SCALE
  5
2E3
102
{ACAD_REACTORS
330
2C4
102
}
330
2C4
100
AcDbScale
 70
     0
300
3" = 1'-0"
140
3.0
141
12.0
290
     0
  0
SCALE
  5
2E4
102
{ACAD_REACTORS
330
2C4
102
}
330
2C4
100
AcDbScale
 70
     0
300
6" = 1'-0"
140
6.0
141
12.0
290
     0
  0
SCALE
  5
2E5
102
{ACAD_REACTORS
330
2C4
102
}
330
2C4
100
AcDbScale
 70
     0
300
1'-0" = 1'-0"
140
12.0
141
12.0
290
     0
  0
TABLESTYLE
  5
2EE
102
{ACAD_XDICTIONARY
360
305
102
}
102
{ACAD_REACTORS
330
2ED
102
}
330
2ED
100
AcDbTableStyle
280
     0
  3
Standard
 70
     0
 71
     0
 40
0.06
 41
0.06
280
     0
281
     0
  7
Standard
140
0.18
170
     2
 62
     0
 63
   257
283
     0
 90
        4
 91
        0
  1

274
    -2
284
     1
 64
     0
275
    -2
285
     1
 65
     0
276
    -2
286
     1
 66
     0
277
    -2
287
     1
 67
     0
278
    -2
288
     1
 68
     0
279
    -2
289
     1
 69
     0
  7
Standard
140
0.25
170
     5
 62
     0
 63
   257
283
     0
 90
        4
 91
        0
  1

274
    -2
284
     1
 64
     0
275
    -2
285
     1
 65
     0
276
    -2
286
     1
 66
     0
277
    -2
287
     1
 67
     0
278
    -2
288
     1
 68
     0
279
    -2
289
     1
 69
     0
  7
Standard
140
0.18
170
     5
 62
     0
 63
   257
283
     0
 90
        4
 91
        0
  1

274
    -2
284
     1
 64
     0
275
    -2
285
     1
 65
     0
276
    -2
286
     1
 66
     0
277
    -2
287
     1
 67
     0
278
    -2
288
     1
 68
     0
279
    -2
289
     1
 69
     0
  0
DICTIONARYVAR
  5
2FE
102
{ACAD_REACTORS
330
2FC
102
}
330
2FC
100
DictionaryVariables
280
     0
  1
STANDARD
  0
DICTIONARYVAR
  5
2FD
102
{ACAD_REACTORS
330
2FC
102
}
330
2FC
100
DictionaryVariables
280
     0
  1
STANDARD
  0
DICTIONARY
  5
305
330
2EE
100
AcDbDictionary
280
     1
281
     1
  3
ACAD_ROUNDTRIP_2008_TABLESTYLE_CELLSTYLEMAP
360
306
  0
CELLSTYLEMAP
  5
306
102
{ACAD_REACTORS
330
305
102
}
330
305
100
AcDbCellStyleMap
 90
        3
300
CELLSTYLE
  1
TABLEFORMAT_BEGIN
 90
        5
170
     1
 91
        0
 92
        0
 62
   257
 93
        1
300
CONTENTFORMAT
  1
CONTENTFORMAT_BEGIN
 90
        0
 91
        0
 92
        4
 93
        0
300

 40
0.0
140
1.0
 94
        5
 62
     0
340
13
144
0.25
309
CONTENTFORMAT_END
171
     1
301
MARGIN
  1
CELLMARGIN_BEGIN
 40
0.06
 40
0.06
 40
0.06
 40
0.06
 40
0.18
 40
0.18
309
CELLMARGIN_END
 94
        6
 95
        1
302
GRIDFORMAT
  1
GRIDFORMAT_BEGIN
 90
        0
 91
        1
 62
     0
 92
       -2
340
0
 93
        0
 40
0.045
309
GRIDFORMAT_END
 95
        2
302
GRIDFORMAT
  1
GRIDFORMAT_BEGIN
 90
        0
 91
        1
 62
     0
 92
       -2
340
0
 93
        0
 40
0.045
309
GRIDFORMAT_END
 95
        4
302
GRIDFORMAT
  1
GRIDFORMAT_BEGIN
 90
        0
 91
        1
 62
     0
 92
       -2
340
0
 93
        0
 40
0.045
309
GRIDFORMAT_END
 95
        8
302
GRIDFORMAT
  1
GRIDFORMAT_BEGIN
 90
        0
 91
        1
 62
     0
 92
       -2
340
0
 93
        0
 40
0.045
309
GRIDFORMAT_END
 95
       16
302
GRIDFORMAT
  1
GRIDFORMAT_BEGIN
 90
        0
 91
        1
 62
     0
 92
       -2
340
0
 93
        0
 40
0.045
309
GRIDFORMAT_END
 95
       32
302
GRIDFORMAT
  1
GRIDFORMAT_BEGIN
 90
        0
 91
        1
 62
     0
 92
       -2
340
0
 93
        0
 40
0.045
309
GRIDFORMAT_END
309
TABLEFORMAT_END
  1
CELLSTYLE_BEGIN
 90
        1
 91
        1
300
_TITLE
309
CELLSTYLE_END
300
CELLSTYLE
  1
TABLEFORMAT_BEGIN
 90
        5
170
     1
 91
        0
 92
        0
 62
   257
 93
        1
300
CONTENTFORMAT
  1
CONTENTFORMAT_BEGIN
 90
        0
 91
        0
 92
        4
 93
        0
300

 40
0.0
140
1.0
 94
        5
 62
     0
340
13
144
0.18
309
CONTENTFORMAT_END
171
     1
301
MARGIN
  1
CELLMARGIN_BEGIN
 40
0.06
 40
0.06
 40
0.06
 40
0.06
 40
0.18
 40
0.18
309
CELLMARGIN_END
 94
        6
 95
        1
302
GRIDFORMAT
  1
GRIDFORMAT_BEGIN
 90
        0
 91
        1
 62
     0
 92
       -2
340
0
 93
        0
 40
0.045
309
GRIDFORMAT_END
 95
        2
302
GRIDFORMAT
  1
GRIDFORMAT_BEGIN
 90
        0
 91
        1
 62
     0
 92
       -2
340
0
 93
        0
 40
0.045
309
GRIDFORMAT_END
 95
        4
302
GRIDFORMAT
  1
GRIDFORMAT_BEGIN
 90
        0
 91
        1
 62
     0
 92
       -2
340
0
 93
        0
 40
0.045
309
GRIDFORMAT_END
 95
        8
302
GRIDFORMAT
  1
GRIDFORMAT_BEGIN
 90
        0
 91
        1
 62
     0
 92
       -2
340
0
 93
        0
 40
0.045
309
GRIDFORMAT_END
 95
       16
302
GRIDFORMAT
  1
GRIDFORMAT_BEGIN
 90
        0
 91
        1
 62
     0
 92
       -2
340
0
 93
        0
 40
0.045
309
GRIDFORMAT_END
 95
       32
302
GRIDFORMAT
  1
GRIDFORMAT_BEGIN
 90
        0
 91
        1
 62
     0
 92
       -2
340
0
 93
        0
 40
0.045
309
GRIDFORMAT_END
309
TABLEFORMAT_END
  1
CELLSTYLE_BEGIN
 90
        2
 91
        1
300
_HEADER
309
CELLSTYLE_END
300
CELLSTYLE
  1
TABLEFORMAT_BEGIN
 90
        5
170
     1
 91
        0
 92
        0
 62
   257
 93
        1
300
CONTENTFORMAT
  1
CONTENTFORMAT_BEGIN
 90
        0
 91
        0
 92
        4
 93
        0
300

 40
0.0
140
1.0
 94
        2
 62
     0
340
13
144
0.18
309
CONTENTFORMAT_END
171
     1
301
MARGIN
  1
CELLMARGIN_BEGIN
 40
0.06
 40
0.06
 40
0.06
 40
0.06
 40
0.18
 40
0.18
309
CELLMARGIN_END
 94
        6
 95
        1
302
GRIDFORMAT
  1
GRIDFORMAT_BEGIN
 90
        0
 91
        1
 62
     0
 92
       -2
340
0
 93
        0
 40
0.045
309
GRIDFORMAT_END
 95
        2
302
GRIDFORMAT
  1
GRIDFORMAT_BEGIN
 90
        0
 91
        1
 62
     0
 92
       -2
340
0
 93
        0
 40
0.045
309
GRIDFORMAT_END
 95
        4
302
GRIDFORMAT
  1
GRIDFORMAT_BEGIN
 90
        0
 91
        1
 62
     0
 92
       -2
340
0
 93
        0
 40
0.045
309
GRIDFORMAT_END
 95
        8
302
GRIDFORMAT
  1
GRIDFORMAT_BEGIN
 90
        0
 91
        1
 62
     0
 92
       -2
340
0
 93
        0
 40
0.045
309
GRIDFORMAT_END
 95
       16
302
GRIDFORMAT
  1
GRIDFORMAT_BEGIN
 90
        0
 91
        1
 62
     0
 92
       -2
340
0
 93
        0
 40
0.045
309
GRIDFORMAT_END
 95
       32
302
GRIDFORMAT
  1
GRIDFORMAT_BEGIN
 90
        0
 91
        1
 62
     0
 92
       -2
340
0
 93
        0
 40
0.045
309
GRIDFORMAT_END
309
TABLEFORMAT_END
  1
CELLSTYLE_BEGIN
 90
        3
 91
        2
300
_DATA
309
CELLSTYLE_END
  0
ENDSEC
  0
EOF
